Chevelle - Send The Pain Below Chords & Tabs

 

Send The Pain Below Chords & Tabs

Chevelle Chords & Tabs

Version: 2 Type: Tab 0 ratings
1 star 2 stars 3 stars 4 stars 5 stars
comments

Send The Pain Below Tab

   
Intro/Chorus 1x (Distortion)
|------------------------------------------------------------|
|------------------------------------------------------------|
|-------------------------------(11s not 1s)-----------------|
|-7--7--7-7-7-7--4--4--4-4-4-4-11-11-11111111--7--7--7-7-7-7-|
|-5--5--5-5-5-5--2--2--2-2-2-2--9--9--9-9-9-9--7--7--7-7-7-7-|
|-0--0--0-0-0-0--0--0--0-0-0-0--0--0--0-0-0-0--0--0--0-0-0-0-|

Pre Verse 1x (Distortion)
|-------------------------------------------|
|-------------------------------------------|
|-------------------------------------------|
|-7~~~~~~~~~~~~~~~~~~~~7~~~~~~~~~~~~~~~~~~~~|
|-5~~~~~~~~~~~~~~~~~~~~5~~~~~~~~~~~~~~~~~~~~|
|-0~~~~~~~~~~~~~~~~~~~~0~~~~~~~~~~~~~~~~~~~~|

Verse Part A 4x (Clean)
|----------------------------|
|----------------------------|
|-7--7-7-7-7--7--7--7-7-7--4-|
|-x--x-x-x-x--x--x--x-x-x--x-|
|-5--5-5-5-5--5--5--5-5-5--2-|
|----------------------------|
[ Tab from: http://www.guitartabs.cc/tabs/c/chevelle/send_the_pain_below_tab_ver_2.html ]
Verse Part B 2x (Clean)
|------------------------------------------------------------|
|--(yet again 11s and not 1s)--------------------------------|
|11-11-11111111-11-11-11111111--7--7--7-7-7-7--7--7--7-7-7-7-|
|-x--x--x-x-x-x--x--x--x-x-x-x--7--7--7-7-7-7--7--7--7-7-7-7-|
|-9--9--9-9-9-9--9--9--9-9-9-9--0--0--0-0-0-0--0--0--0-0-0-0-|
|------------------------------------------------------------|

|------------------------------------------------------------|
|------------------------------------------------------------|
|-7--7--7-7-7-7--7--7--7-7-7-7--4--4--4-4-4-4--4--4--4-4-4-4-|
|-x--x--x-x-x-x--x--x--x-x-x-x--x--x--x-x-x-x--x--x--x-x-x-x-|
|-5--5--5-5-5-5--5--5--5-5-5-5--2--2--2-2-2-2--2--2--2-2-2-2-|
|------------------------------------------------------------|

Chorus 2x

Verse Part A 4x

Verse Part B 2x

Chorus 2x

Interlude Part A 2x (Clean)
|--------------------------|
|--------------------------|
|--------------------------|
|-2-2-2-2-2-0--5-5-5-5-4-4-|
|-2-2-2-2-2-0--5-5-5-5-4-4-|
|-2-2-2-2-0-0--5-5-5-5-4-4-|

Interlude Part B 10x (Distortion)
|--------------------------|
|--------------------------|
|--------------------------|
|-2-2-2-2-2-0--5-5-5-5-4-4-|
|-2-2-2-2-2-0--5-5-5-5-4-4-|
|-2-2-2-2-0-0--5-5-5-5-4-4-|

On the 2nd and 10th times, play a |000xxx| Chord at the very end and keep picking it

Verse Part B 4x (Put on light Distortion after 2nd time)

End On
|---------------------------------|
|---------------------------------|
|-7~~~~~~~~~~~~~~~~~~~~~~~~~~~~~~~|
|-x~~~~~~~~~~~~~~~~~~~~~~~~~~~~~~~|
|-5~~~~~~~~~~~~~~~~~~~~~~~~~~~~~~~|
|---------------------------------|

Comments