Chevelle - Send The Pain Below Chords & Tabs

 

Send The Pain Below Chords & Tabs

Chevelle Chords & Tabs

Version: 10 Type: Tab 0 ratings
1 star 2 stars 3 stars 4 stars 5 stars
comments

Send The Pain Below Tab

this song in pretty easy it took me like a hour to get it on my guitar well ok first
it's standrd tuning. this is the first time i've ever seen this done like this so i
hope it's right.

intro


[-------------------------------------------------------------------]
[-------------------------------------------------------------------]
[---4--------------------------8------------------------------------]
[---4------------6-------------9-----------------------2------------]
[---2------------6-------------6-----------------------2------------]
[----------------4-------------------------------------0------------]

[ Tab from: http://www.guitartabs.cc/tabs/c/chevelle/send_the_pain_below_tab_ver_10.html ]
[-------------------------------------------------------------------]
[-------------------------------------------------------------------]
[-------4--------------------------4--------------------------------]
[-------4--------------------------4--------------------------------]
[-------2--------------------------2--------------------------------]
[-------------------------------------------------------------------]

verse-1

[------------------------------------------------------------------]
[------------------------------------------------------------------]
[----8888888888--6----8888888888888888888888--6--------------------]
[----9999999999--6----9999999999999999999999--6--------------------]
[----6666666666--4----6666666666666666666666--4--------------------]
[------------------------------------------------------------------]


pre chorus is the same as the intro and so is the chorus but the bridge 
i'm not sure if it's right 


[-----------------------------------------------------------------]
[-----------------------------------------------------------------]
[-----------------------------4--7--6--4--8--7--------------------]
[-----------------------------4--7--6--4--8--7--------------------]
[---2-5554--2-66665-----------2--5--4--2--6--5--------------------]
[-----------------------------------------------------------------]


and just repeat the chorus and that's it
Comments