Chevelle - Send The Pain Below Chords & Tabs

 

Send The Pain Below Chords & Tabs

Chevelle Chords & Tabs

Version: 1 Type: Tab 0 ratings
1 star 2 stars 3 stars 4 stars 5 stars
comments

Send The Pain Below Tab

Song: Send the Pain Below
Artist: Chevelle
Album: Wonder What's Next?
Tabbed By: Chris Lewis
Tuning: Dropped D


Intro
|---------------|
|---------------|
|-11--8---8---4-|
|-x---6---x---2-|
|-9---6---6---2-|
|-----6-------2-|

Verse
|-----------|---------------|
|-----------|---------------|
|-8---6---4-|-11--8---8---4-|
|-x---4---2-|-x---6---x---2-|
|-6---4---2-|-9---6---6---2-|
|-----4---2-|-----6-------2-|
[ Tab from: http://www.guitartabs.cc/tabs/c/chevelle/send_the_pain_below_tab.html ]
Chorus
|---------------|
|---------------|
|-11--8---8---4-|
|-x---6---x---2-|
|-9---6---6---2-|
|-----6-------2-|

Bridge
|---------------------------------|
|---------------------------------|
|---------------------------------|
|-0h2-2-0h2-0---0-4-4-4-4-5-5-5-5-|
|-0h2-2-0h2-0---0-4-4-4-4-5-5-5-5-|
|-0h2-2-0h2-0---0-4-4-4-4-5-5-5-5-|


I'm about 80% sure that this is right.  Any Questions or comments e-mail
me at Bleach108@cox.net.
Comments