Chevelle - Red Chords & Tabs

 

Red Chords & Tabs

Chevelle Chords & Tabs

Version: 2 Type: Tab 0 ratings
1 star 2 stars 3 stars 4 stars 5 stars
comments

Red Tab

   
chevele

-the red-
tuning: c# g# c# f# a# d#  low to high
tabbed be Cory George sKiTsoFraNiaK@hotmail.com

Kick ass single from Chevelle's latest incredible album "wonder What's Next."  I saw Pete Loeffler play it on the music video so I'm certain this is right. 

As with all my tabs, if you need the bass part email me.
 
intro repeat x2
|-----------------------------------------------------------|
|-----------------------------------------------------------|
|-----------------------------------------------------------|
|-0-----------3---3-3-3-3-0-----------8---8-8-8-8-----------|
|-0---5-7-5-0-3---3-3-3-3-0---5-7-5-0-8---8-8-8-8-----------|
|-0-----------3---3-3-3-3-0-----------8---8-8-8-8-----------|

verse riff 1 x3
|-----------------------------------------------------------|
|-----------------------------------------------------------|
|-----------------------------------------------------------|
|-0---5-7-5-0-3---3-0-3-0-0---5-7-5-0-8---8-8-8-8-----------|
|-0---5-7-5-0-3---3-0-3-0-0---5-7-5-0-8---8-8-8-8-----------|
|-0---5-7-5-0-3---3-0-3-0-0---5-7-5-0-8---8-8-8-8-----------|
pm.   . . . . .   . . . . .   . . . . .   . . . .

verse riff 2 x1
|---------------------------------------------------|
|---------------------------------------------------|
|---------------------------------------------------|
|-0---5-7-5-0-3---3-0-3-0-0---5-7-5-0-8-------------|
|-0---5-7-5-0-3---3-0-3-0-0---5-7-5-0-8-------------|
|-0---5-7-5-0-3---3-0-3-0-0---5-7-5-0-8-------------|
pm.   . . . . .   . . . . . .   . . .    

chorus
|------------------------------------------------------|
|------------------------------------------------------|
|-------------------------------------------------5----|
|-0---0-0-0-0-0---0-0-0-0-3---3-3-3-3-3---3-3-3-3-5----|
|-0---0-0-0-0-0---0-0-0-0-3---3-3-3-3-3---3-3-3-3-3----|
|-0---0-0-0-0-0---0-0-0-0-3---3-3-3-3-3---3-3-3-3------|

|-------------------------------------------------|
|-------------------------------------------------|
|-5-5-5-5-5---5-5-5-5-5---5-5-5-5-5---5-5-5-5-----|
|-5-5-5-5-5---5-5-5-5-5---5-5-5-5-5---5-5-5-5-----|
|-3-3-3-3-3---3-3-3-3-3---3-3-3-3-3---3-3-3-3-----|
|-------------------------------------------------|
[ Tab from: http://www.guitartabs.cc/tabs/c/chevelle/red_tab_ver_2.html ]
|------------------------------------------------------|
|------------------------------------------------------|
|-------------------------------------------------5----|
|-0---0-0-0-0-0---0-0-0-0-3---3-3-3-3-3---3-3-3-3-5----|
|-0---0-0-0-0-0---0-0-0-0-3---3-3-3-3-3---3-3-3-3-3----|
|-0---0-0-0-0-0---0-0-0-0-3---3-3-3-3-3---3-3-3-3------|

|-------------------------------------------------|
|-------------------------------------------------|
|-5-5-5-5-5---5-5-5-5-----------------------------|
|-5-5-5-5-5---5-5-5-5-6h7-7-7-7-7-7-7-7-7-7-7-----|
|-3-3-3-3-3---3-3-3-3-6h7-7-7-7-7-7-7-7-7-7-7-----|
|---------------------6h7-7-7-7-7-7-7-7-7-7-7-----|

after chorus repeat x2
|-----------------------------------------------------------|
|-----------------------------------------------------------|
|-----------------------------------------------------------|
|-0-----------3---3-3-3-3-0-----------8---8-8-8-8-----------|
|-0---5-7-5-0-3---3-3-3-3-0---5-7-5-0-8---8-8-8-8-----------|
|-0-----------3---3-3-3-3-0-----------8---8-8-8-8-----------|

verse riff 1 x7
verse riff 2
chorus

solo tremolo picking
|-----------------------------------------------------------|
|-----------------------------------------------------------|
|-----------------------------------------------------------|
|-----------------------------------------------------------|
|-\12-----------------------------------------\12-----------|
|--------------------10---12---------12/--------------------|

|-------------------|
|-------------------|
|-------------------|
|-------------------|
|-------------------|
|-10---12-----------|

chorus x2
after chorus x4

then
|-----------------------------------------------------------|
|-----------------------------------------------------------|
|-----------------------------------------------------------|
|-8-8-x-x-x-x-8-8-x-x-x-x-7-7-x-x-x-x-7-7-x-x-x-x-0---------|
|-8-8-x-x-x-x-8-8-x-x-x-x-7-7-x-x-x-x-7-7-x-x-x-x-0---------|
|-8-8-x-x-x-x-8-8-x-x-x-x-7-7-x-x-x-x-7-7-x-x-x-x-0---------|

outro repeat x 4  clean
|-----------------------------------------------------------|
|-----------------------------------------------------------|
|-----------------------------------------------------------|
|-0-----------3---3-3-3-3-0-----------8---8-8-8-8-----------|
|-0---5-7-5-0-3---3-3-3-3-0---5-7-5-0-8---8-8-8-8-----------|
|-0-----------3---3-3-3-3-0-----------8---8-8-8-8-----------|

|-------------|
|-------------|
|-------------|
|-0-----------|
|-0-----------|
|-0-----------|

Comments