Chevelle - Red Chords & Tabs

 

Red Chords & Tabs

Chevelle Chords & Tabs

Version: 1 Type: Tab 0 ratings
1 star 2 stars 3 stars 4 stars 5 stars
comments

Red Tab

band: Chevelle
Song: The red
Tabbed by: Jamie Stevens and cory george...Sexpistol190@hotmail.com
tuned to drop d then down a half step...all flats

e------------------------------------------
b------------------------------------------
g------------------------------------------
d--0---------3-33-3-5--0---------8-88-8-0--
a--0-5-7-5-0-3-33-3-5--0-5-7-5-0-8-88-8-0--
d--0---------3-33-3-5--0---------8-88-8-0--

e--------pm--------------------------------
b------------------------------------------
g------------------------------------------
d--0---------3-33-3-5--0---------8-88-8-0--
a--0-5-7-5-0-3-33-3-5--0-5-7-5-0-8-88-8-0--
d--0---------3-33-3-5--0---------8-88-8-0--

e-----------------------------------
b-----------------------------------
g-----------------------------------
d--0---------3-33-3-5--0---------8--
a--0-5-7-5-0-3-33-3-5--0-5-7-5-0-8--
d--0---------3-33-3-5--0---------8--

e---------------------------------------------------------------------------------
b---------------------------------------------------------------------------------
g---------------------------------------------------------------------------------
d--0-0000-0-0000--3-3333-3-3333--10-10101010-10-10101010-10-10101010-10-10101010--
a--0-0000-0-0000--3-3333-3-3333--10-10101010-10-10101010-10-10101010-10-10101010--
d--0-0000-0-0000--3-3333-3-3333--10-10101010-10-10101010-10-10101010-10-10101010--

e------------------------------------------
b------------------------------------------
g------------------------------------------
d--0---------3-33-3-5--0---------8-88-8-0--
a--0-5-7-5-0-3-33-3-5--0-5-7-5-0-8-88-8-0--
d--0---------3-33-3-5--0---------8-88-8-0--

e--------pm--------------------------------
b------------------------------------------
g------------------------------------------
d--0---------3-33-3-5--0---------8-88-8-0--
a--0-5-7-5-0-3-33-3-5--0-5-7-5-0-8-88-8-0--
d--0---------3-33-3-5--0---------8-88-8-0--
[ Tab from: http://www.guitartabs.cc/tabs/c/chevelle/red_tab.html ]
e-----------------------------------
b-----------------------------------
g-----------------------------------
d--0---------3-33-3-5--0---------8--
a--0-5-7-5-0-3-33-3-5--0-5-7-5-0-8--
d--0---------3-33-3-5--0---------8--

e---------------------------------------------------------------------------------
b---------------------------------------------------------------------------------
g---------------------------------------------------------------------------------
d--0-0000-0-0000--3-3333-3-3333--10-10101010-10-10101010-10-10101010-10-10101010--
a--0-0000-0-0000--3-3333-3-3333--10-10101010-10-10101010-10-10101010-10-10101010--
d--0-0000-0-0000--3-3333-3-3333--10-10101010-10-10101010-10-10101010-10-10101010--

e-------------------------------------
b-------------------------------------
g-------------------------------------
d-------------------------------------
a--12trem-----------------------------
d------------------10trem-----12trem--

e---------------------------------------------------------------------------------
b---------------------------------------------------------------------------------
g---------------------------------------------------------------------------------
d--0-0000-0-0000--3-3333-3-3333--10-10101010-10-10101010-10-10101010-10-10101010--
a--0-0000-0-0000--3-3333-3-3333--10-10101010-10-10101010-10-10101010-10-10101010--
d--0-0000-0-0000--3-3333-3-3333--10-10101010-10-10101010-10-10101010-10-10101010--

e------------------------------------------
b------------------------------------------
g------------------------------------------
d--0---------3-33-3-5--0---------8-88-8-0--
a--0-5-7-5-0-3-33-3-5--0-5-7-5-0-8-88-8-0--
d--0---------3-33-3-5--0---------8-88-8-0--

e-----------------------------------
b-----------------------------------
g-----------------------------------
d--88-xxxx-88-xxxx-77-xxxx-77-xxxx--
a--88-xxxx-88-xxxx-77-xxxx-77-xxxx--
d--88-xxxx-88-xxxx-77-xxxx-77-xxxx--

e------------------------------------------
b------------------------------------------
g------------------------------------------
d------------------------------------------
a--0-5-7-5-0-3-33-3-5--0-5-7-5-0-8-88-8-0--
d--0---------3-33-3-5--0---------8-88-8-0--
Comments