Chevelle - Point 1 Chords & Tabs

 

Point 1 Chords & Tabs

Chevelle Chords & Tabs

Version: 2 Type: Tab 0 ratings
1 star 2 stars 3 stars 4 stars 5 stars
comments

Point 1 Tab

   
-------------------------------------------------------------------------------
                               POINT#1-CHEVELLE
-------------------------------------------------------------------------------
Tabbed BY: dustind
Email: freakmachine2001@hotmail.com

Tuning: D-standard

This is my first tab, but I watched the video and listened real close so I think
its almost 100%!

Intro: Clean/listen to song to get correct strumming
|-----------------------------------------------------------------------------|
|-----------------------------------------------------------------------------|
|-----------------------------------------------------------------------------|
|-2-2-2-2-2-2-2-2-2-2-2-0-3---------------------------------------------------|
|-2-2-2-2-2-2-2-2-2-2-2-0-3---------------------------------------------------|
|-0-0-0-0-0-0-0-0-0-0-0-0-1---------------------------------------------------|
[ Tab from: http://www.guitartabs.cc/tabs/c/chevelle/point_1_tab_ver_2.html ]
Chorus: Strum all chords/ Listen to song to get correct strumming
|-----------------------------------------------------------------------------|
|-----------------------------------------------------------------------------|
|----7------------------------------------------------------------------------|
|-3-~x------------------------------------------------------------------------|
|-3-~5------------------------------------------------------------------------|
|-1-~-------------------------------------------------------------------------|

Interlude: Repeat
|-----------|
|-----------|
|-----------|
|--2--------|
|--2--------|
|--0--------|

|-----------------------------------------------------------------------------|
|-----------------------------------------------------------------------------|
|-----------------------------------------------------------------------------|
|-2-5-10-10-10-10-10-10-10-10-10-10-10-10-10-10-10-10-7-----------------------|
|-2-5-10-10-10-10-10-10-10-10-10-10-10-10-10-10-10-10-7-----------------------|
|-0-3-8--8--8--8--8--8--8--8--8--8--8--8--8--8--8--8--5-----------------------|

Solo thingy: Play very fast with octave

|-----------------------------------------------------------------------------|
|-----------------------------------------------------------------------------|
|-----------------------------------------------------------------------------|
|------------------------------------------------------------------14-14-14-14|
|-10-10-10-10-8-8-8-8-8-8-8-8-8-8-8-10-10-10-10-8-8-8-8-8-8-8-8-8-8-----------|
|-----------------------------------------------------------------------------|

Outro:
|----------------------|
|-------19-19-19-19----|
|-------18-18-18-18----|
|-2-2---17-17-17-17----|
|-2-2------------------|
|-0-0------------------|

And thats it! You can pretty much figure out the order,
its a pretty easy song to learn. Have fun Chevelle fans!
Comments