Chevelle - Peer Chords & Tabs

 

Peer Chords & Tabs

Chevelle Chords & Tabs

Version: 1 Type: Bass Tab 0 ratings
1 star 2 stars 3 stars 4 stars 5 stars
comments

Peer Bass Tab

Artist:    Chevelle
Song:     Peer
Album:  Point #1
Instrument: 5-string electric bass, tuning (GDAEB)
Tabbed by (lomans@bellsouth.net)

   I heard this song the other day and really liked it. The opening bass line is more 
when compared to most of Chevelle's stuff. I searched online for the tab and couldn't
find so here it goes. This line is correct (for the most part); I figured it out with
my electric without an amp, so I think most of the notes are sound. Also you can drop-D
a four to play this just move the fingering up the neck on the E-string. E-mail with any
corrections. Enjoy...

*Key:   h- hammer-on

Verse (After the guitar intro) (:12) *(Pay attention, he changes it up a few times)

G------------------------------------------------------------------------|
D-----5----------------------------3h5---5---55----3--3-3-33-3-----------|
A------------3---------------3h5-----------------------------------------|
E-------------------3--3h5-----------------------------------------------|
B------------------------------------------------------------------------|

(Play this between vocal lines (:57) (1:53) then go back to the first line)
[ Tab from: http://www.guitartabs.cc/tabs/c/chevelle/peer_btab.html ]
G------------3------------------------------------------------------------------|
D-----5------------5--5------------------3h5---5--55----3--3-3-33-3-------------|
A----------------------------------3h5------------------------------------------|
E--------------------------3h5--------------------------------------------------|
B-------------------------------------------------------------------------------|
*(End on F (3rd fret D string) and let it ring out before the drop-
out.)

(Let the final F (3rd fret D-string) ring out before the prominent melody change (maybe chorus?)

Chorus (Once again pay attention to minor changes in the bass line's tempo)

G---------------------------------------------------------------|
D---------------------------------------------------------------|
A---------------------------------------------------------------|
E----*5--*5----------------------1--1111----3--3333-------------|
B-------------3--3--33--3---------------------------------------|
*(Pause on these notes and start out on the low D at the beginning of the chorus.)

(Play this at 2:47)

G--------------------------------------------|
D--------------------------------------------|
A--------------------------------------------|
E-----0h1-1111-----3-333---5---3-------------|
B--------------------------------------------|

(Play at 3:05) (The fastest part, when the drums break it up just follow their lead, end on E)

G--------------------------------------------|
D--------------------------------------------|
A--------------------------------------------|
E---3-2-0-3-2-0-3-2-0-3-2---0-2-3------------|
B--------------------------------------------|
*(-3-3-0-------------------------------------| final line
Comments