Chevelle - Panic Prone Chords & Tabs

 

Chevelle Chords & Tabs

Version: 1 Type: Tab 0 ratings
1 star 2 stars 3 stars 4 stars 5 stars
comments

Panic Prone Tab

   
Artist:  Chevelle
Song:    Panic Prone
Album:   This Type of Thinking Could Do Us In
Tuning:  Drop A# (A# F A# D# G C)
Transcribed by: Oleander
Original Tabber:  Mike Smith (sublime56@hotmail.com)


Track number 6 - This ones a slow one, but it has a brief rocking out moment
during the breakdown.  It's still a kick ass song.

Enjoy!


Notation Key:

v - Downstroke
^ - Upstroke
h - Hammer On
p - Pull Off
()- Ghost Note - Barely tap the note with the pick
* - Natural Harmonic Note
~ - Let Ring
/ - Slide Up
\ - Slide Down
x - Muted String
p.m. - Palm Mute


Intro (Clean guitar - requires syncopation.  Play along with the song!):

          * hit ghost notes after every 2nd zero
C |------------------------------------------------------------------------|
G |------------------------------------------------------------------------|
D#|------------------------------------------------------------------------|
A#|-0-0-0-0--0-0-0-0--0-0-0-0--0-0-0-0--0-0-0-0--0-0-0-0--0-0-0-0--0-0-0-0-|
F |2--(2)---2--(2)---------------------2--(2)---2--(2)---------------------|
A#|------------------5--(5)---5--(5)---------------------5--(5)---5--(5)---| x2

Verse 1:

C |------------------------------------------------------------------------|
G |------------------------------------------------------------------------|
D#|------------------------------------------------------------------------|
A#|-0-0-0-0--0-0-0-0--0-0-0-0--0-0-0-0--0-0-0-0--0-0-0-0--0-0-0-0--0-0-0-0-|
F |2--(2)---2--(2)---------------------2--(2)---2--(2)---------------------|
A#|------------------5--(5)---5--(5)---------------------5--(5)---5--(5)---|

2nd time through, play this:

C |------------------------------------------------------------------------|
G |------------------------------------------------------------------------|
D#|------------------------------------------------------------------------|
A#|-0-0-0-0--0-0-0-0--0-0-0-0--0-0-0-0--0-0-0-0--0-0-0-0--0-0-0-0--0-0-0-0-|
F |2--(2)---2--(2)---------------------2--(2)---2--(2)---------------------|
A#|------------------5--(5)---7--(7)---------------------5--(5)---5--(5)---|

Chorus 1:

C |------------------------------------------------------------------------|
G |------------------------------------------------------------------------|
D#|------------------------------------------------------------------------|
A#|-0-0-0-0--0-0-0-0--0-0-0-0--0-0-0-0--9-9-9-9--9-9-9-9--9-9-9-9--7-7-7-7-|
F |------------------------------------------------------------------------|
A#|0--(0)---0--(0)---0--(0)---0--(0)---9--(9)---9--(9)---9--(9)---7--(7)---|

C |------------------------------------------------------------------------|
G |------------------------------------------------------------------------|
D#|------------------------------------------------------------------------|
A#|-5-5-5-5--5-5-5-5--5-5-5-5--5-5-5-5--7-7-7-7--7-7-7-7--7-7-7-7--8-8-8-8-|
F |------------------------------------------------------------------------|
A#|5--(5)---5--(5)---5--(5)---5--(5)---7--(7)---7--(7)---7--(7)---8--(8)---|

Verse 2:

C |------------------------------------------------------------------------|
G |------------------------------------------------------------------------|
D#|------------------------------------------------------------------------|
A#|-0-0-0-0--0-0-0-0--0-0-0-0--0-0-0-0--0-0-0-0--0-0-0-0--0-0-0-0--0-0-0-0-|
F |2--(2)---2--(2)---------------------2--(2)---2--(2)---------------------|
A#|------------------5--(5)---5--(5)---------------------5--(5)---5--(5)---|

C |------------------------------------------------------------------------|
G |------------------------------------------------------------------------|
D#|------------------------------------------------------------------------|
A#|-0-0-0-0--0-0-0-0--0-0-0-0--0-0-0-0--0-0-0-0--0-0-0-0--0-0-0-0--0-0-0-0-|
F |2--(2)---2--(2)---------------------2--(2)---2--(2)---------------------|
A#|------------------5--(5)---7--(7)---------------------5--(5)---5--(5)---| x2

Chorus 2:
[ Tab from: http://www.guitartabs.cc/tabs/c/chevelle/panic_prone_tab.html ]
C |------------------------------------------------------------------------|
G |------------------------------------------------------------------------|
D#|------------------------------------------------------------------------|
A#|-0-0-0-0--0-0-0-0--0-0-0-0--0-0-0-0--9-9-9-9--9-9-9-9--9-9-9-9--7-7-7-7-|
F |------------------------------------------------------------------------|
A#|0--(0)---0--(0)---0--(0)---0--(0)---9--(9)---9--(9)---9--(9)---7--(7)---|

C |------------------------------------------------------------------------|
G |------------------------------------------------------------------------|
D#|------------------------------------------------------------------------|
A#|-5-5-5-5--5-5-5-5--5-5-5-5--5-5-5-5--9-9-9-9--9-9-9-9--9-9-9-9--7-7-7-7-|
F |------------------------------------------------------------------------|
A#|5--(5)---5--(5)---5--(5)---5--(5)---9--(9)---9--(9)---9--(9)---7--(7)---|

2nd time through play this:
                                                    (These are 12's) *
C |------------------------------------------------------------------------|
G |------------------------------------------------------------------------|
D#|------------------------------------------------------------------------|
A#|-0-0-0-0--0-0-0-0--0-0-0-0--0-0-0-0--9-9-9-9--9-9-9-9--9-9-9-9--12121212|
F |------------------------------------------------------------------------|
A#|0--(0)---0--(0)---0--(0)---0--(0)---9--(9)---9--(9)---9--(9)---12-(12)--|

C |------------------------------------------------------------------------|
G |------------------------------------------------------------------------|
D#|------------------------------------------------------------------------|
A#|-5-5-5-5--5-5-5-5--5-5-5-5--5-5-5-5--7-7-7-7--7-7-7-7--7-7-7-7--8-8-8-8-|
F |------------------------------------------------------------------------|
A#|5--(5)---5--(5)---5--(5)---5--(5)---7--(7)---7--(7)---7--(7)---8--(8)---|

Breakdown (Distorted):

C |------------------------------------------------------------------------|
G |------------------------------------------------------------------------|
D#|-----------11~~------------------11~~----------------7~~----------7~~---|
A#|7h9-9-9-0--9----------7h9-9-9-0--9----------5--5-5-5-5---5--5-5-5-5-----|
F |7h9-9-9-0--9----------7h9-9-9-0--9----------5--5-5-5-5---5--5-5-5-5-----|
A#|7h9-9-9-0--9----------7h9-9-9-0--9----------5--5-5-5-5---5--5-5-5-5-----| x4

Chorus 3 (Distorted Guitar with Acoustic Oversample.  Acoustic plays same chords):

C |------------------------------------------------------------------------|
G |------------------------------------------------------------------------|
D#|------------------------------------------------------------------------|
A#|0-0-0-0-0-0-0-0-0-0-0-0-0-0-0-0-0---9-9-9-9-9-9-9-9-9-9-9-9--7-7-7-7-7--|
F |0-0-0-0-0-0-0-0-0-0-0-0-0-0-0-0-0---9-9-9-9-9-9-9-9-9-9-9-9--7-7-7-7-7--|
A#|0-0-0-0-0-0-0-0-0-0-0-0-0-0-0-0-0---9-9-9-9-9-9-9-9-9-9-9-9--7-7-7-7-7--|

C |------------------------------------------------------------------------|
G |------------------------------------------------------------------------|
D#|------------------------------------------------------------------------|
A#|5-5-5-5-5-5-5-5-5-5-5-5-5-5-5-5-5---9-9-9-9-9-9-9-9-9-9-9-9--7-7-7-7-7--|
F |5-5-5-5-5-5-5-5-5-5-5-5-5-5-5-5-5---9-9-9-9-9-9-9-9-9-9-9-9--7-7-7-7-7--|
A#|5-5-5-5-5-5-5-5-5-5-5-5-5-5-5-5-5---9-9-9-9-9-9-9-9-9-9-9-9--7-7-7-7-7--|

2nd time through play this:

C |------------------------------------------------------------------------|
G |------------------------------------------------------------------------|
D#|------------------------------------------------------------------------|
A#|0-0-0-0-0-0-0-0-0-0-0-0-0-0-0-0-0---9-9-9-9-9-9-9-9-9-9-9-9--7-7-7-7-7--|
F |0-0-0-0-0-0-0-0-0-0-0-0-0-0-0-0-0---9-9-9-9-9-9-9-9-9-9-9-9--7-7-7-7-7--|
A#|0-0-0-0-0-0-0-0-0-0-0-0-0-0-0-0-0---9-9-9-9-9-9-9-9-9-9-9-9--7-7-7-7-7--|

C |------------------------------------------------------------------------|
G |------------------------------------------------------------------------|
D#|------------------------------------------------------------------------|
A#|5-5-5-5-5-5-5-5-5-5-5-5-5-5-5-5-5---7-7-7-7-7-7-7-7-7-7-7-7--8-8-8-8-8--|
F |5-5-5-5-5-5-5-5-5-5-5-5-5-5-5-5-5---7-7-7-7-7-7-7-7-7-7-7-7--8-8-8-8-8--|
A#|5-5-5-5-5-5-5-5-5-5-5-5-5-5-5-5-5---7-7-7-7-7-7-7-7-7-7-7-7--8-8-8-8-8--|

Outro (Let the chord ring and the rest is all harmonic feedback):

C |------------------------------------------------------------------------|
G |------------------------------------------------------------------------|
D#|------------------------------------------------------------------------|
A#|9~~~~~------------------------------------------------------------------|
F |9~~~~~------------------------------------------------------------------|
A#|9~~~~~------------------------------------------------------------------|
Comments