Chevelle - Mia Chords & Tabs

 

Mia Chords & Tabs

Chevelle Chords & Tabs

Version: 2 Type: Tab 0 ratings
1 star 2 stars 3 stars 4 stars 5 stars
comments

Mia Tab

----------------------------------------------------------------------------
			     Mia - Chevelle
----------------------------------------------------------------------------
Tabbed by: Bassman!!!
Email:bassman13@hotmail.com

Tuning:Drop D

e|--------------------------------------------------------------------------
B|--------------------------------------------------------------------------
G|--11-11/-9-9------9-9-----------------------------------------------------
D|--11-11/-9-9--9-9-9-9---5-5/-7-7/-9-9--5-5--------------------------------
A|--9--9/--7-7--9-9-9-9---5-5/-7-7/-9-9--5-5--------------------------------
D|------------------------5-5/-7-7/-9-9--5-5--------------------------------
Verse
                           
[ Tab from: http://www.guitartabs.cc/tabs/c/chevelle/mia_tab_ver_2.html ]
e|--------------------------------------------------------------------------
B|--------------------------------------------------------------------------
G|------4------4------------------------------------------------------------
D|-2-2-x4-2-2-x4--5-5-5-5-5-5-7-7-9-9\--------------------------------------
A|-2-2-x--2-2-x---5-5-5-5-5-5-7-7-9-9\--------------------------------------
E|-2-2----2-2-----5-5-5-5-5-5-7-7-9-9\--------------------------------------
Chorus                               ^slide back down to begining



                             heavy bend!
e|---------------------------^----------------------------------------------
B|-------------------3-3-2-3-6----------------------------------------------
G|-------------------2-2-2-2-5----------------------------------------------
D|--2222222222222222--------------------------------------------------------
A|--2222222222222222--------------------------------------------------------
E|--2222222222222222--------------------------------------------------------
Break

there u have it, it may not be perfect, in fact it probably isn't but hey, if
it sounds nearly exactly the same, who cares. I hope this can help someone out.
Comments