Chevelle - Its No Good Chords & Tabs

 

Its No Good Chords & Tabs

Chevelle Chords & Tabs

Version: 2 Type: Tab 0 ratings
1 star 2 stars 3 stars 4 stars 5 stars
comments

Its No Good Tab

   
Band: Chevelle
Song: It's No Good
Tabbed by: guitarfreak328 (do the rhythm yourself)

Intro:
E|---------------------------------------------|
B|---------------------------------------------|
G|---4--4--4----4--4--4----4--4--4----4--4--4--|
D|--6--6--6----6--6--6----6--6--6----6--6--6---|
A|-4--4--4----4--4--4----4--4--4----4--4--4----|
E|---------------------------------------------|

Solo:
E|--------------------------|
B|--------------------------|
G|-13~-16\--9~-13\-6~-6/4~--|  2x
D|--------------------------|
A|--------------------------|
E|--------------------------|

Verse:(Palm Muted)
E|-------------------------------------------------------------------|
B|-------------------------------------------------------------------|
G|-------------------------------------------------------------------|  4x
D|------6-6-6-6-------4-4-4-4--------------------------4-4-------6-6-|
A|-4-4--4-4-4-4--4-4--2-2-2-2--4-4--7-7-7-7-7-7---4-4--2-2--4-4--4-4-|
E|-2-2-----------2-2-----------2-2--5-5-5-5-5-5---2-2-------2-2------|

Chorus:(Unmuted)
E|---------------------------------|
B|---------------------------------|
G|-6-6-6-6-6-6-6-6-6-6-6-6-6-6-6-6-|
D|-6-6-6-6-6-6-6-6-6-6-6-6-6-6-6-6-|
A|-4-4-4-4-4-4-4-4-4-4-4-4-4-4-4-4-|
E|---------------------------------|

Bridge:
E|---------------------------------------------|
B|---------------------------------------------|
G|---4--4--4----4--4--4----4--4--4----4--4--4--|
D|--6--6--6----6--6--6----6--6--6----6--6--6---|
A|-4--4--4----4--4--4----4--4--4----4--4--4----|
E|---------------------------------------------|

Solo 2:
E|----------------------------|
B|----------------------------|
G|-13~-16\--9~-13\-6~-9--2~-1~|  2x
D|----------------------------|
A|----------------------------|
E|----------------------------|
[ Tab from: http://www.guitartabs.cc/tabs/c/chevelle/its_no_good_tab_ver_2.html ]
Verse:(Palm Muted)
E|-------------------------------------------------------------------|
B|-------------------------------------------------------------------|
G|-------------------------------------------------------------------|  2x
D|------6-6-6-6-------4-4-4-4--------------------------4-4-------6-6-|
A|-4-4--4-4-4-4--4-4--2-2-2-2--4-4--7-7-7-7-7-7---4-4--2-2--4-4--4-4-|
E|-2-2-----------2-2-----------2-2--5-5-5-5-5-5---2-2-------2-2------|

(Unmuted)
E|-------------------------------------------------------------------|
B|-------------------------------------------------------------------|
G|-------------------------------------------------------------------|  2x
D|------6-6-6-6-------4-4-4-4--------------------------4-4-------6-6-|
A|-4-4--4-4-4-4--4-4--2-2-2-2--4-4--7-7-7-7-7-7---4-4--2-2--4-4--4-4-|
E|-2-2-----------2-2-----------2-2--5-5-5-5-5-5---2-2-------2-2------|

Chorus:
E|---------------------------------|
B|---------------------------------|
G|-6-6-6-6-6-6-6-6-6-6-6-6-6-6-6-6-|
D|-6-6-6-6-6-6-6-6-6-6-6-6-6-6-6-6-|
A|-4-4-4-4-4-4-4-4-4-4-4-4-4-4-4-4-|
E|---------------------------------|

Verse: (Unmuted)
E|-------------------------------------------------------------------|
B|-------------------------------------------------------------------|
G|-------------------------------------------------------------------|  4x
D|------6-6-6-6-------4-4-4-4--------------------------4-4-------6-6-|
A|-4-4--4-4-4-4--4-4--2-2-2-2--4-4--7-7-7-7-7-7---4-4--2-2--4-4--4-4-|
E|-2-2-----------2-2-----------2-2--5-5-5-5-5-5---2-2-------2-2------|

Outro:
E|---------------------------------------------|
B|---------------------------------------------|
G|---4--4--4----4--4--4----4--4--4----4--4--4--|  2x
D|--6--6--6----6--6--6----6--6--6----6--6--6---|
A|-4--4--4----4--4--4----4--4--4----4--4--4----|
E|---------------------------------------------|
Comments