Chevelle - Grab Thy Hand Chords & Tabs

 

Grab Thy Hand Chords & Tabs

Chevelle Chords & Tabs

Version: 6 Type: Tab 0 ratings
1 star 2 stars 3 stars 4 stars 5 stars
comments

Grab Thy Hand Tab

   
Band: Chevelle
Song: Grab Thy Hand
Album: Wonder Whats Next
Tunning: drop B (B F# B E G# C#)
Tabbed by: Oleander

Heres the right way to play it

Intro: play twice
|------------------|------------xxxxxxxx---|
|------------------|------------xxxxxxxx---|
|------------------|------------xxxxxxxx---|
|----------------0-|------------xxxxxxxx---|
|------------------|------------xxxxxxxx---|
|00-00-00-00-0h1---|00-00-00-00-xxxxxxxx---|

play four times
|------------------|
|------------------|
|------------------|
|----------------0-|
|00-00-00-00-------|
|00-00-00-00-0h1---|


Pick these: four times
|---------------|
|-55-55-5-55--66|
|7--7--7-7---7--|
|---------------|
|---------------|
|---------------|

4 times then break, then eight more
|------|
|------|
|-3----|
|---0--|
|------|
|----0-|

then this 3 times, then play this \/ once
|------------xxxxxxxx---|------------xxxxxxxx---|
|------------xxxxxxxx---|------------xxxxxxxx---|
|------------xxxxxxxx---|------------xxxxxxxx---|
|------------xxxxxxxx---|00-00-00-00-xxxxxxxx---|
|------------xxxxxxxx---|00-00-00-00-xxxxxxxx---|
|00-00-00-00-xxxxxxxx---|00-00-00-00-xxxxxxxx---|



play 3 times:
|------------------|
|------------------|
|----5-----3---3p2-|
|------------------|
|----3-----1---1p0-|
|00-0--00-0--0-----|
[ Tab from: http://www.guitartabs.cc/tabs/c/chevelle/grab_thy_hand_tab_ver_6.html ]
then 
|------------------|
|------------------|
|------------------|
|------------------|
|----3-----1---1p0-|
|00-0--00-0--0-----|

then:
|---|
|---|
|---|
|3--|
|3--|
|3--|

twice
|------|
|------|
|-3----|
|---0--|
|------|
|----0-|

then 

|---|
|---|
|---|
|3--|
|3--|
|3--|

then four times
|------------------|------------xxxxxxxx---|
|------------------|------------xxxxxxxx---|
|------------------|------------xxxxxxxx---|
|----------------0-|------------xxxxxxxx---|
|------------------|------------xxxxxxxx---|
|00-00-00-00-0h1---|00-00-00-00-xxxxxxxx---|

play four times
|------------------|
|------------------|
|------------------|
|----------------0-|
|00-00-00-00-------|
|00-00-00-00-0h1---|

then play this 4 times

|---------------|
|-55-55-5-55--66|
|7--7--7-7---7--|
|---------------|
|---------------|
|---------------|

then this 4 times
|------|
|------|
|-3----|
|---0--|
|------|
|----0-|

Outro: play several times
|------------------|------------------|
|------------------|------------------|
|------------------|------------------|
|------------------|------------------|
|----3-----5-------|----3-----5---6p5-|
|00-0--00-0--0-3h5-|00-0--00-0--0-----|

end with
|------------------|------------------|
|------------------|------------------|
|------------------|------------------|
|------------------|----------5-------|
|----3-----5-------|----3-----3-------|
|00-0--00-0--0-3h5-|00-0--00-0--------|
Comments