Chevelle - Get Some Chords & Tabs

 

Get Some Chords & Tabs

Chevelle Chords & Tabs

Version: 2 Type: Bass Tab 0 ratings
1 star 2 stars 3 stars 4 stars 5 stars
comments

Get Some Bass Tab

   
Band- Chevelle
Song- Get Some

Tuning -
	B F# B E

* - Let Ring
h - hammer on
p - pull off
x - mute string
~ - vibrato
----------|
o---------|o } Repeat once
o---------|o }
----------|

Intro
    0:00

E:  -----------------------------------------------------|
B:  -----------------------------------------------------|
F#: --------------3--3-3---------------------------------|  x2
B:   --2*--2-0-2----------2-0-4-0*---2-0-4-7*---7-5-4-0--|

E:  -------------------------------------------------------------------------|
B:  -------------------------------------------------------------------------|
F#: -------------------------------------------------------------------------|  x2
B:  ---2-2-2-2-2-2-2---2-2-2-2-2-2-2---2-2-2-2-2-2-2---2-2-2-2-2-0-5-5-5-5-0-|

Verse
0:30
E:  -----------------------------------------------------------|
B:  -----------------------------------------------------------|
F#: -----------------------------------------------------------|  x2
B:   --2*--2*--2*----2*--2*--2*----2*--2*--2*----2*--2-0-5-5-0-|

Chorus
    0:45

E:  --------------------------------------------------------|
B:  --------------------------------------------------------|
F#: --------------------------------------------------------|
B:  --2--2-2-2-2---2--2-2-2-2---2--2-2-2-2---2--2-2-2/5-5-5-|


E:  ------------------------------------------------|
B:  ------------------------------------------------|
F#: ------------------------------------------------|
B:  --0---0--0----0---0--0----0---0--0----0---0-4-0-|

     0:54

E:  -------------------------------------------------------------------------|
B:  -------------------------------------------------------------------------|
F#: -------------------------------------------------------------------------|  x2
B:  ---2-2-2-2-2-2-2---2-2-2-2-2-2-2---2-2-2-2-2-2-2---2-2-2-2-2-0-5-5-5-5-0-|


Verse
	1:15

E:  -----------------------------------------------------------|
B:  -----------------------------------------------------------|
F#: -----------------------------------------------------------|  x2
B:   --2*--2*--2*----2*--2*--2*----2*--2*--2*----2*--2-0-5-5-0-|


E:  -----------------------------------------------------------------|
B:  -----------------------------------------------------------------|
F#: -----------------------------------------------------------------|  x2
B:   --2-2-2-2-2-2-2-2-2-2-2-2-2-2-2-2-2-2-2-2-2-2-2-2-2-2-2-0-5-5-0-|

Chorus
	1:45

E:  --------------------------------------------------------|
B:  --------------------------------------------------------|
F#: --------------------------------------------------------|
B:  --2--2-2-2-2---2--2-2-2-2---2--2-2-2-2---2--2-2-2/5-5-5-|


E:  ------------------------------------------------|
B:  ------------------------------------------------|
F#: ------------------------------------------------|  x2
B:  --0---0--0----0---0--0----0---0--0----0---0-4-0-|

Bridge
	2:15

[ Tab from: http://www.guitartabs.cc/tabs/c/chevelle/get_some_btab_ver_2.html ]
E:  ---------------------------------------------------------------------------------|
B:  ---------------------------------------------------------------------------------|
F#: ---------------------------------------------------------------------------------|  x2
B:  -2-2-2-2-2---2-2-2---2-2-2-2-2---2-2-2---2-2-2-2-2---2-2-2---2-2-2-2-2---0--2--4-|

E:  -----------------------------------------------------------------------------------|
B:  -----------------------------------------------------------------------------------|
F#: -----------------------------------------------------------------------------------|
B:  -0-0-0-0-0---0-0-0---0-0-0-0-0---0-0-0---0-0-0-0-0---0-0-0---0-0-0-0-0---0--4--0---|

E:  ----------------------------------------------------------------------------------|
B:  o---------------------------------------------------------------------------------|
F#: o---------------------------------------------------------------------------------|
B:  -2-2-2-2-2---2-2-2---2-2-2-2-2---2-2-2---2-2-2-2-2---2-2-2---2-2-2-2-2---0--2--4--|

E:  ----------------------------------------------------------------------------------|
B:  ----------------------------------------------------------------------------------|o
F#: ----------------------------------------------------------------------------------|o
B:  -0-0-0-0-0---0-0-0---0-0-0-0-0---0-0-0---0-0-0-0-0---0-0-0---0-0-0-0-0---0--4--0--|

	3:17

E:  -----------------------------------------------------|
B:  -----------------------------------------------------|
F#: --------------3--3-3---------------------------------|
B:   --2*--2-0-2----------2-0-4-0*---2-0-4-7*---7-5-4-0-|
Chorus
	3:24

E:  --------------------------------------------------------|
B:  --------------------------------------------------------|
F#: --------------------------------------------------------|
B:  --2--2-2-2-2---2--2-2-2-2---2--2-2-2-2---2--2-2-2/5-5-5-|


E:  ------------------------------------------------|
B:  ------------------------------------------------|
F#: ------------------------------------------------|  x2
B:  --0---0--0----0---0--0----0---0--0----0---0-4-0-|

	3:54

E:  -------------------------------------------------------------------------|
B:  -------------------------------------------------------------------------|
F#: -----------------3-3-3-3-------------------------------------------------|  x2
B:  --2-2-2-22-0-2----------2-2-0-4-0-0-0-0--2-2-0-4-7-7-7-7---5-4-0-------|

E:  -----------------------------------------------------------|
B:  -----------------------------------------------------------|
F#: ---------------3--3----------------------------------------|
B:  --2--2-2-0-2--------2-0-4-0--0--2-0-4-7--7---5-4-0-------|

E:  -----------------------------------------------------------------|
B:  -----------------------------------------------------------------|
F#: ---------------3--3----------------------------------------------|
B:  --2--2-2-0-2--------2-0-4-0--0--2-0-4-7--7---7-5-4-0-0--0--0---|
Comments