Chevelle - Get Some Chords & Tabs

 

Get Some Chords & Tabs

Chevelle Chords & Tabs

Version: 1 Type: Bass Tab 1 rating
1 star 2 stars 3 stars 4 stars 5 stars
comments

Get Some Bass Tab

INTRO:
G ---------3-3-3-----------------------
D ---------------2-3---------5-5-3-2---
A 5-5-5-3-5---------3-3-3-5-3--------3-
E ------------------------------------- REPEAT

MAIN:
G --------------------------------
D ----------------------------3---
A 5-5-5---5-5-5---5-5-5---5-3---3-
E -------------------------------- REPEAT
[ Tab from: http://www.guitartabs.cc/tabs/c/chevelle/get_some_btab.html ]
CHORUS:
G --------------------------------------------------------------
D ----------------------------3------------------------------2--
A 5-5-5---5-5-5---5-5-5---5-5----3-3-3---3-3-3---3-3-3---3-3----
E -------------------------------------------------------------- REPEAT

BRIDGE:
G --------------------------------------------------------------------------------------
D --------------------------------------------------------------------------------------
A 5--5--5-5-5--5--5-5-5--5--5-5-5--5--5-3-5-7-3--3--3-3-3--3--3-3-3--3--3-3-3--3--3-7-3-
E -------------------------------------------------------------------------------------- REPEAT

Sry its sorta plain and the bridge might be a little off but its mostly right. It's easy to get
the drift of.
Comments