Chevelle - Forfeit Chords & Tabs

 

Forfeit Chords & Tabs

Chevelle Chords & Tabs

Version: 1 Type: Bass Tab 0 ratings
1 star 2 stars 3 stars 4 stars 5 stars
comments

Forfeit Bass Tab

Band- Chevelle
Song- Forfeit

VERSE
G|--------------------------------------------------------|
D|--------------------------------------------------------|
A|--------------------------------------------------------|
E|--------------------------------------------------------|
B|-7-7---7777---7777---7777/5/3-3-----3333---3333---3333/2|
PRE-CHORUS
G|--------------------|
D|--------------------|
A|--------------------|
E|--------------------|
B|----7-0-------7-0---|
[ Tab from: http://www.guitartabs.cc/tabs/c/chevelle/forfeit_btab.html ]
CHORUS 1
G|------------|
D|------------|
A|------------|
E|------------|
B|-70-0-0-0---|
CHORUS 2
G|---------------|
D|---------------|
A|---------------|
E|---------------|
B|-70-0-0-0-3/5--|
BRIDGE
G|-------------------------------------------------------|
D|-------------------------------------------------------|
A|-------------------------------------------------------|
E|-------------------------------------------------------|
B|-0-0---0000---0000---0000---0000---0000---0000---000---|
ENDING
G|------------|
D|------------|
A|------------|
E|------------|
B|-----0-0----|

ORDER
VERSE X 3
PRE-CHORUS X 1
CHORUS 1 X 11
CHORUS 2 X 1
VERSE X 3
PRE-CHORUS X 1
CHORUS 1 X 15
CHORUS 2 X 1
VERSE X 2
PRE-CHORUS X 1
BRIDGE X 2
CHORUS 1 X 15
CHORUS 2 X 1
ENDING X 1

ENJOY!!!!
Comments