Chevelle - Family System Chords & Tabs

 

Family System Chords & Tabs

Chevelle Chords & Tabs

Version: 2 Type: Bass Tab 0 ratings
1 star 2 stars 3 stars 4 stars 5 stars
comments

Family System Bass Tab

Here is the correct bass tab for Family System by Chevelle.

*Note that it is in low B, a 5-string bass is pretty much required. He plays a 5-string.

Riff 1:
G|--------------------------|
D|--------------------------|
A|--------------------------|
E|--------------------------|
B|---00----00----0-00----00-|

Riff 2:
G|---------------------|
D|---------------------|
A|---------------------|
E|-2----2----1-----1-2-|
B|--3-0--3-0--3-0-3----|
[ Tab from: http://www.guitartabs.cc/tabs/c/chevelle/family_system_btab_ver_2.html ]
Riff 3:
G|-------------------------------------------------------------------|
D|-------------------------------------------------------------------|
A|-------------------------------------------------------------------|
E|-------------------------------------------------------------------|
B|--(3)---3----(3)---3----(0)---0----(0)----(3)---3----(3)---3---(0)-|

Riff 4:
G|-------------------------------------------------|
D|-------------------------------------------------|
A|-------------------------------------------------|
E|-------------------------------------------------|
B|-(0)---0-------00----0---00---(0)---00(0)---0(0)-|

Riff 5:
G|---------------------------------------------------|
D|---------------------------------------------------|
A|---------------------------------------------------|
E|---------------------------------------------------|
B|---3---3-3----3---3-3---45--0---0-0----0---00---45-|

That's pretty much it. Order is easy. Just listen to the song w/a few variations. Easy and awesome!
Comments