Chevelle - Family System Chords & Tabs

 

Family System Chords & Tabs

Chevelle Chords & Tabs

Version: 1 Type: Bass Tab 0 ratings
1 star 2 stars 3 stars 4 stars 5 stars
comments

Family System Bass Tab

Artist: Chevelle
  Song: Family System
 Album: Wonder What's Next
       © 2002 Epic Records

Tabbed By: John
    Email: ProjectXero@msn.com

Tuning is Drop-D Down one step
Low to high it's C,G,C,F

Intro
(Right after the very irst part)
F|------------------------------|
C|------------------------------|
G|------------------------------|
C|--0-0---------0-0------0------|
[ Tab from: http://www.guitartabs.cc/tabs/c/chevelle/family_system_btab.html ]
Main Line
F|---------------------------|
C|---------------------------|
G|---------------------------|
C|--7-4-0-7-4-0-6-3-0-3-6----|

Verse
F|-------------------------------------------------------|
C|-------------------------------------------------------|
G|-------------------------------------------------------|
C|--3-3-3-3-X-X-X-3-3-3-3--5-5-0-0-0-0-X-X-X-0-0-0-0-5-5-|

(Silence)

Bridge
F|--------------------------------|
C|--------------------------------|
G|--------------------------------|
C|--3--3--3-3-5-5--0--0-0-0-5-5-5-|

Back into the Main riff

(Bass Repeats Until the end)

© 2002 John Pippin (ProjectXero@msn.com)
Comments