Chevelle - Emotional Drought Chords & Tabs

 

Emotional Drought Chords & Tabs

Chevelle Chords & Tabs

Version: 1 Type: Tab 0 ratings
1 star 2 stars 3 stars 4 stars 5 stars
comments

Emotional Drought Tab

   
Chevelle
Emotional Drought
This Type of Thinking (Could Do us in)
Tabber: Oleander

A# F A# D# G C


1x
------------------------------------------------------|
------------------------------------------------------|
----------------------------------------------------5-|
----------------------------------------5-x-5-x-3-x-5-|
------0353530------0353530------0353530-5-x-5-x-3-x-3-|
-0000---------0000---------0000---------5-x-5-x-3-x---|

3x
----------------------------------|
----------------------------------|
--------------------------------5-|
-0-0-0-0-10-12-10-12-10-5-x-3-x-5-|
-0-0-0-0-10-12-10-12-10-5-x-3-x-3-|
-0-0-0-0-10-12-10-12-10-5-x-3-x---|

1x
--------------------------------------|
--------------------------------------|
------------------------------------5-|
-0-0-0-0-10-12-10-12-10-5-x-5-x-3-x-5-|
-0-0-0-0-10-12-10-12-10-5-x-5-x-3-x-3-|
-0-0-0-0-10-12-10-12-10-5-x-5-x-3-x---|

2x
-----------------|
-----------------|
-----------------|
-----------------|
-------555333331-|
-000000----------|

8x
-----------------|
-----------------|
-----------------|
-----------------|
-------555333331-|
-000000----------|
 ***************

1x
------------------------------------------------------|
------------------------------------------------------|
----------------------------------------------------5-|
----------------------------------------5-x-5-x-3-x-5-|
------0353530------0353530------0353530-5-x-5-x-3-x-3-|
-0000---------0000---------0000---------5-x-5-x-3-x---|

3x
----------------------------------|
----------------------------------|
--------------------------------5-|
-0-0-0-0-10-12-10-12-10-5-x-3-x-5-|
-0-0-0-0-10-12-10-12-10-5-x-3-x-3-|
-0-0-0-0-10-12-10-12-10-5-x-3-x---|

1x
--------------------------------------|
--------------------------------------|
------------------------------------5-|
-0-0-0-0-10-12-10-12-10-5-x-5-x-3-x-5-|
-0-0-0-0-10-12-10-12-10-5-x-5-x-3-x-3-|
-0-0-0-0-10-12-10-12-10-5-x-5-x-3-x---|

2x
-----------------|
-----------------|
-----------------|
-----------------|
-------555333331-|
-000000----------|

8x
-----------------|
-----------------|
-----------------|
-----------------|
-------555333331-|
-000000----------|
 ***************

1x
------------------------------------------------------|
------------------------------------------------------|
----------------------------------------------------5-|
----------------------------------------5-x-5-x-3-x-5-|
------0353530------0353530------0353530-5-x-5-x-3-x-3-|
-0000---------0000---------0000---------5-x-5-x-3-x---|
[ Tab from: http://www.guitartabs.cc/tabs/c/chevelle/emotional_drought_tab.html ]
3x
----------------------------------|
----------------------------------|
--------------------------------5-|
-0-0-0-0-10-12-10-12-10-5-x-3-x-5-|
-0-0-0-0-10-12-10-12-10-5-x-3-x-3-|
-0-0-0-0-10-12-10-12-10-5-x-3-x---|

1x
--------------------------------------|
--------------------------------------|
------------------------------------5-|
-0-0-0-0-10-12-10-12-10-5-x-5-x-3-x-5-|
-0-0-0-0-10-12-10-12-10-5-x-5-x-3-x-3-|
-0-0-0-0-10-12-10-12-10-5-x-5-x-3-x---|

1x
----------------------------------------|
----------------------------------------|
----9~----9~-(9999999)----9~----9~------|
-0~-9~-0~-9~------------0~-9~-0~-9~-0~--|
-0~-0~-0~-0~------------0~-0~-0~-0~-0~--|
-0~----0~---------------0~----0~----0~--|

8x
--------------------------|
---5-6-5-6-5----5-6-5-6-5-|
-7------------7-----------|
--------------------------|
--------------------------|
--------------------------|

4x
--------------------------------|
--------------------------------|
-5-x-----5-x-9-x-5-x-----5-7s87-|
-5-x-7-x-5-x-9-x-5-x-7-x-5-7s87-|
-3-x-7-x-3-x-7-x-3-x-7-x-3-5s65-|
-----7-x-------------7-x--------|

4x
----------------------------------|
----------------------------------|
-5s22222-5s22222-5s22222-5s22-----|
-5s22222-5s22222-5s22222-5s22-555-|
-3s00000-3s00000-3s00000-3s00-555-|
------------------------------555-|


1x (Feedback or pedal, not sure, but it\'s awesome)
------------------------------------------------------|
------------------------------------------------------|
----------------------------------------------------5-|
----------------------------------------5-x-5-x-3-x-5-|
------0353530------0353530------0353530-5-x-5-x-3-x-3-|
-0000---------0000---------0000---------5-x-5-x-3-x---|

3x
----------------------------------|
----------------------------------|
--------------------------------5-|
-0-0-0-0-10-12-10-12-10-5-x-3-x-5-|
-0-0-0-0-10-12-10-12-10-5-x-3-x-3-|
-0-0-0-0-10-12-10-12-10-5-x-3-x---|

1x
--------------------------------------|
--------------------------------------|
------------------------------------5-|
-0-0-0-0-10-12-10-12-10-5-x-5-x-3-x-5-|
-0-0-0-0-10-12-10-12-10-5-x-5-x-3-x-3-|
-0-0-0-0-10-12-10-12-10-5-x-5-x-3-x---|

3x
----------------------------------|
----------------------------------|
--------------------------------5-|
-0-0-0-0-10-12-10-12-10-5-x-3-x-5-|
-0-0-0-0-10-12-10-12-10-5-x-3-x-3-|
-0-0-0-0-10-12-10-12-10-5-x-3-x---|

1x
--------------------------------------|
--------------------------------------|
------------------------------------5-|
-0-0-0-0-10-12-10-12-10-5-x-5-x-3-x-5-|
-0-0-0-0-10-12-10-12-10-5-x-5-x-3-x-3-|
-0-0-0-0-10-12-10-12-10-5-x-5-x-3-x---|

end on
----
----
----
-0~-
-0~-
-0~-

Questions? PM Me
Comments