Chevelle - Comfortable Liar Chords & Tabs

 

Comfortable Liar Chords & Tabs

Chevelle Chords & Tabs

Version: 2 Type: Tab 0 ratings
1 star 2 stars 3 stars 4 stars 5 stars
comments

Comfortable Liar Tab

chevelle- comfortable liar
drop Db tuning

intro is just a pickscrape then

main riff

1|------------------------------------------
2|------------------------------------------
3|------------------------------------------
4|--6-6-6-6-6-6--2--6-6-6--2-6-6-6-6--2-x---
5|--6-6-6-6-6-6--2--6-6-6--2-6-6-6-6--2-x---
6|--4-4-4-4-4-4--0--4-4-4--0-4-4-4-4--0-x---


chorus:
[ Tab from: http://www.guitartabs.cc/tabs/c/chevelle/comfortable_liar_tab_ver_2.html ]
1|---------------
2|---------------
3|---------------
4|--2~~----6~~---
5|--2~~----6~~---
6|--0~~----4~~---


outro:

1|------------------------------
2|------------------------------
3|------------------------------
4|--2-2-2-2-2-2----6-6-6-6-6----
5|--2-2-2-2-2-2----6-6-6-6-6----
6|--0-0-0-0-0-0----4-4-4-4-4----
pm  . . . . . . 

thats it! easyist song ever!!! i'm not good at figuaring song out but i
fuguared this out in awhile.
Comments