Chevelle - Closure Chords & Tabs

 

Closure Chords & Tabs

Chevelle Chords & Tabs

Version: 7 Type: Tab 0 ratings
1 star 2 stars 3 stars 4 stars 5 stars
comments

Closure Tab

   
Im tired of really bad completely wrong tabs so here it goes.
It probably isn't perfect, but it's a lot closer than any of the other ones.

Tuning is: B F# B E G# C#

Time Signature: 3/4

Intro: (2x)

[------------------------------------------------]
[------------------------------------------------]
[-7-****-8--****-7-****-8--****-7-8--**----------]
[------------------------------------------------]
[-5-****-10-****-9-****-10-****-9-10-**----------]
[------------------------------------------------]

Verse: Same As Intro(4x)

Bridge: (3x)
[ Tab from: http://www.guitartabs.cc/tabs/c/chevelle/closure_tab_ver_7.html ]
[-3-3-5-3-3---3-3-5-3-3---5-5-7-5-5---5-5-7-5-5------]
[-3-3-5-3-3---3-3-5-3-3---5-5-7-5-5---5-5-7-5-5------]
[-3-3-5-3-3---3-3-5-3-3---5-5-7-5-5---5-5-7-5-5------]
[----------------------------------------------------]
[----------------------------------------------------]
[----------------------------------------------------]

Chorus: (30 Measures)

[---------]
[---------]
[-10------]
[---------]
[-8-------]
[-8-------]

Thingy: After The 30 Measures: (Using Distortion)

[----]
[----]
[----]
[-2--]
[-2--]
[-2--]

Outro: (Distortion)

[-------------------------------------------]
[-------------------------------------------]
[-8--8--8--7-7-7-5--------------------------]
[------------------7-7-7--7-3-3-3--3-0-0-0--]
[-10-10-10-9-9-9-7-7-7-7--7-3-3-3--3-0-0-0--]
[------------------7-7-7--7-3-3-3--3-0-0-0--]


Order:
Intro
Verse
Bridge
Chorus
Thingy (Distortion)
Verse2
Bridge (Distortion)
Chorus (Distortion)
Thingy (Distortion)
Verse (Distortion)
Bridge (Distortion)
Chorus (Distortion)
Thingy (Distortion)
Chorus (Distortion)
Thingy (Distortion)
Outro (Distortion)
Comments