Chevelle - Closure Chords & Tabs

 

Closure Chords & Tabs

Chevelle Chords & Tabs

Version: 6 Type: Tab 0 ratings
1 star 2 stars 3 stars 4 stars 5 stars
comments

Closure Tab

   
Artist: Chevelle   
Title: Closure
Date: Jan 25, 2003

Tabbed by M.R cashbagg@yahoo.com

This version is the only correct and COMPLETE one on here. 
Dropped B

Intro/verses 
Clean guitar

|--------------------------------------|
|--------------------------------------|
|-7-xxxx-10-xxxx--9-xxxx--10-9/10-5----|  Note: later in song this is played by 
|--------------------------------------|        with the open string muted      
|-5-xxxx-8--xxxx--7-xxxx--8--7/8--3----|        during distorted part.
|-0-0000-0--0000--0-0000--0--0----0----|

1st Bridge (same notes played on distorted bridge)


|-------------------------------------------------|
|-------------------------------------------------|
|-------------------------------------------------|
|-3--3-5-3-0--3--3-5-3-0--5--5-7-5-0--5--5-7-5-0--|
|-3--3-5-3-0--3--3-5-3-0--5--5-7-5-0--5--5-7-5-0--|
|-3--3-5-3-0--3--3-5-3-0--5--5-7-5-0--5--5-7-5-0--|

1st chorus (Clean)
[ Tab from: http://www.guitartabs.cc/tabs/c/chevelle/closure_tab_ver_6.html ]
          Closure has come to me.......   Distortion
|---------------------------------------|----------------|
|---------------------------------------|----------------|
|--10-----------------10----------------|----------------|
|---------------------10----------------|--0-3---0-3--0--|
|--8------------------8-----------------|--0-3---0-3--0--|
|--0------------------8-----------------|--0-3---0-3--0--|



2nd Chorus (distorted)

|------------------------------------------------------------|
|------------------------------------------------------------|
|--10----------------10--------------------------------------|
|--------------------10--------------------0-3--0-3---0------|
|--8-------7h8-7-----8---------------------0-3--0-3---0------|
|--0--------------7--8---------------------0-3--0-3---0------|

Outro

|----------------------------------------------|
|----------------------------------------------|
|-10-10-10-9-9-9--7----------------------------|
|--------------------7-7--7-7--3-3-3-3---------|
|-8--8--8--7-7-7--5--7-7--7-7--3-3-3-3---------|
|--------------------7-7--7-7--3-3-3-3--0-0-0-0|


Easy as pie!
Comments