Chevelle - Closure Chords & Tabs

 

Closure Chords & Tabs

Chevelle Chords & Tabs

Version: 2 Type: Tab 1 rating
1 star 2 stars 3 stars 4 stars 5 stars
comments

Closure Tab

   
Chevelle
Closure
Dropped B (B-F-B-E-G-C)




 intro [play 2x]
|---------------------------------------------------------|
|---------------------------------------------------------|
|---7--x-x-x-x-10--x-x-x-x--9--x-x-x-x-10--9/10-----------|
|---x--x-x-x-x--x--x-x-x-x--x--x-x-x-x--x--x--x----0--0---|
|---5--x-x-x-x--8--x-x-x-x--7--x-x-x-x--8--7/-8----0--0---|
|---0--x-x-x-x--0--x-x-x-x--0--x-x-x-x--0--0--0----0--0---|


 verse 1 [play 4x]
|---------------------------------------------------------|
|---------------------------------------------------------|
|---7--x-x-x-x-10--x-x-x-x--9--x-x-x-x-10--9/10-----------|
|---x--x-x-x-x--x--x-x-x-x--x--x-x-x-x--x--x--x----0--0---|
|---5--x-x-x-x--8--x-x-x-x--7--x-x-x-x--8--7/-8----0--0---|
|---0--x-x-x-x--0--x-x-x-x--0--x-x-x-x--0--0--0----0--0---|

        
 prechorus [play 3x]
|----------------------------------------------------------------|
|----------------------------------------------------------------|
|----------------------------------------------------------------|
|---3--3--5--3--0--3--3--5--3--0--5--5--7--5--0--5--5--7--5--0---|
|---3--3--5--3--0--3--3--5--3--0--5--5--7--5--0--5--5--7--5--0---|
|---3--3--5--3--0--3--3--5--3--0--5--5--7--5--0--5--5--7--5--0---|



 chorus [play 4x]

 [note: strum the first chord a bunch of times, then play
  the middle transition once (as he's saying "closure has.."),
  then go into strumming the second chord a bunch of times]
 
|----------------------------------------------|
|----------------------------------------------|
|---10-10-10-10----10--9----10----10-10-10-10--|
|----x--x--x--x-----x--x--0--8----8--8--8--8---|
|----8--8--8--8-----8--7--0--8----8--8--8--8---|
|----0--0--0--0-----0--0--0--8----8--8--8--8---|



 [note: cut distortion on here and leave it on for the rest of the song]

|----------------|
|----------------|
|----------------|
|---5--3--5--3---|
|---5--3--5--3---|
|---5--3--5--3---|
    m     m
    


 verse 2 [play 4x]
|---------------------------------------------------------|
|---------------------------------------------------------|
|---7--x-x-x-x-10--x-x-x-x--9--x-x-x-x-10--9/10-----------|
|---x--x-x-x-x--x--x-x-x-x--x--x-x-x-x--x--x--x----0--0---|
|---5--x-x-x-x--8--x-x-x-x--7--x-x-x-x--8--7/-8----0--0---|
|---0--x-x-x-x--0--x-x-x-x--0--x-x-x-x--0--0--0----0--0---|




 prechorus [play 3x]
|----------------------------------------------------------------|
|----------------------------------------------------------------|
|----------------------------------------------------------------|
|---3--3--5--3--0--3--3--5--3--0--5--5--7--5--0--5--5--7--5--0---|
|---3--3--5--3--0--3--3--5--3--0--5--5--7--5--0--5--5--7--5--0---|
|---3--3--5--3--0--3--3--5--3--0--5--5--7--5--0--5--5--7--5--0---|



 chorus [play 4x]
|---------------------------------------------|
|---------------------------------------------|
|---10-10-10-10----10--9----10---10-10-10-10--|
|----x--x--x--x-----x--x--0--8---8--8--8--8---|
|----8--8--8--8-----8--7--0--8---8--8--8--8---|
|----0--0--0--0-----0--0--0--8---8--8--8--8---|


|----------------|
|----------------|
|----------------|
|---5--3--5--3---|
|---5--3--5--3---|
|---5--3--5--3---|
    m     m



 verse 3 [play 1x]
 he changes the guitar on the second line in this verse
 why only in this verse? i dunno. he wanted to i guess.
|---------------------------------------------------------|
|---------------------------------------------------------|
|---7--x-x-x-x-10--x-x-x-x--9--x-x-x-x-10--9/10-----------|
|---x--x-x-x-x--x--x-x-x-x--x--x-x-x-x--x--x--x----0--0---|
|---5--x-x-x-x--8--x-x-x-x--7--x-x-x-x--8--7/-8----0--0---|
|---0--x-x-x-x--0--x-x-x-x--0--x-x-x-x--0--0--0----0--0---|
      

|--------------------------------------------------------|
|--------------------------------------------------------|
|---7--x-x-x-x-10--x-x-x-x--9--x-x-x-x-12--12-12-12-12---|
|---x--x-x-x-x--x--x-x-x-x--x--x-x-x-x--x---x--x--x--x---|
|---5--x-x-x-x--8--x-x-x-x--7--x-x-x-x-10--10-10-10-10---|
|---0--x-x-x-x--0--x-x-x-x--0--x-x-x-x--0---0--0--0--0---|
[ Tab from: http://www.guitartabs.cc/tabs/c/chevelle/closure_tab_ver_2.html ]
    
   
|---------------------------------------------------------|
|---------------------------------------------------------|
|---7--x-x-x-x-10--x-x-x-x--9--x-x-x-x-10--9/10-----------|
|---x--x-x-x-x--x--x-x-x-x--x--x-x-x-x--x--x--x----0--0---|
|---5--x-x-x-x--8--x-x-x-x--7--x-x-x-x--8--7/-8----0--0---|
|---0--x-x-x-x--0--x-x-x-x--0--x-x-x-x--0--0--0----0--0---|

     

|---------------------------------------------------------|
|---------------------------------------------------------|
|---7--x-x-x-x-10--x-x-x-x--9--x-x-x-x-10--9/10-----------|
|---x--x-x-x-x--x--x-x-x-x--x--x-x-x-x--x--x--x----0--0---|
|---5--x-x-x-x--8--x-x-x-x--7--x-x-x-x--8--7/-8----0--0---|
|---0--x-x-x-x--0--x-x-x-x--0--x-x-x-x--0--0--0----0--0---|

	  


 prechorus [play 3x]
|----------------------------------------------------------------|
|----------------------------------------------------------------|
|----------------------------------------------------------------|
|---3--3--5--3--0--3--3--5--3--0--5--5--7--5--0--5--5--7--5--0---|
|---3--3--5--3--0--3--3--5--3--0--5--5--7--5--0--5--5--7--5--0---|
|---3--3--5--3--0--3--3--5--3--0--5--5--7--5--0--5--5--7--5--0---|




 chorus [play 2x]
|---------------------------------------------|
|---------------------------------------------|
|---10-10-10-10----10--9----10---10-10-10-10--|
|----x--x--x--x-----x--x--0--8---8--8--8--8---|
|----8--8--8--8-----8--7--0--8---8--8--8--8---|
|----0--0--0--0-----0--0--0--8---8--8--8--8---|



|----------------|
|----------------|
|----------------|
|---5--3--5--3---|
|---5--3--5--3---|
|---5--3--5--3---|
    m     m
    



 chorus [play 2x] 
|---------------------------------------------|
|---------------------------------------------|
|---10-10-10-10----10-10----10---10-10-10-10--|
|----x--x--x--x-----x--x--0--8---8--8--8--8---|
|----8--8--8--8-----8--7--0--8---8--8--8--8---|
|----0--0--0--0-----0--0--0--8---8--8--8--8---|

                 

|----------------|
|----------------|
|----------------|
|---5--3--5--3---|
|---5--3--5--3---|
|---5--3--5--3---|
    m     m
    
  


 outro [play 1x]
|---------------------------------------------------------|
|---------------------------------------------------------|
|---10-10-10--9--9--9-------------------------------------|
|----x--x--x--x--x--x--x--7-7-7-7--7-3-3-3-3--------------|
|----8--8--8--7--7--7--x--7-7-7-7--7-3-3-3-3--------------|
|----0--0--0--0--0--0--x--7-7-7-7--7-3-3-3-3--3-0-0-0-0---|



|----------------------------------------------------------|
|----------------------------------------------------------|
|---10-10-10--9--9--9--------------------------------------|
|----x--x--x--x--x--x--x--7-7-7-7--7-3-3-3-3--3-0-0-0--0---|
|----8--8--8--7--7--7--x--7-7-7-7--7-3-3-3-3--3-0-0-0--0---|
|----0--0--0--0--0--0--x--7-7-7-7--7-3-3-3-3--3-0-0-0--0---|
                                              m m m m  
|---------------------------------------------------------|
|---------------------------------------------------------|
|---10-10-10--9--9--9-------------------------------------|
|----x--x--x--x--x--x--x--7-7-7-7--7-3-3-3-3--------------|
|----8--8--8--7--7--7--x--7-7-7-7--7-3-3-3-3--------------|
|----0--0--0--0--0--0--x--7-7-7-7--7-3-3-3-3--3-0-0-0-0---|

|---------------------------------------------------------|
|---------------------------------------------------------|
|---10-10-10--9--9--9-------------------------------------|
|----x--x--x--x--x--x--x--7-7-7-7--7-3-3-3-3--------------|
|----8--8--8--7--7--7--x--7-7-7-7--7-3-3-3-3--------------|
|----0--0--0--0--0--0--x--7-7-7-7--7-3-3-3-3--3-0-0-0-0---|

|---------------------------------------------------------|
|---------------------------------------------------------|
|---10-10-10--9--9--9-------------------------------------|
|----x--x--x--x--x--x--x--7-7-7-7--7-3-3-3-3--------------|
|----8--8--8--7--7--7--x--7-7-7-7--7-3-3-3-3--------------|
|----0--0--0--0--0--0--x--7-7-7-7--7-3-3-3-3--3-0-0-0-0---|

|----------------------------------------------------------|
|----------------------------------------------------------|
|---10-10-10--9--9--9--------------------------------------|
|----x--x--x--x--x--x--x--7-7-7-7--7-3-3-3-3--3-0-0-0--0---|
|----8--8--8--7--7--7--x--7-7-7-7--7-3-3-3-3--3-0-0-0--0---|
|----0--0--0--0--0--0--x--7-7-7-7--7-3-3-3-3--3-0-0-0--0---|
                                              m m m m



Comments