Chevelle - Clincher Chords & Tabs

 

Clincher Chords & Tabs

Chevelle Chords & Tabs

Version: 3 Type: Tab 0 ratings
1 star 2 stars 3 stars 4 stars 5 stars
comments

Clincher Tab

-------------------------------------------------------------------------------
			     Chevelle - The Clincher
-------------------------------------------------------------------------------
Tabbed by:A-T-L

Tuning: Contrary to popular belief, it's in Drop B, trust me

   Intro (start with feedback)
C#|---------------------------------------------------------------------------|
G#|---------------------------------------------------------------------------|
E |---------------------------------------------------------------------------|
B |--------------------------3h2053p0-3h2053p0223p0---------xx----------------|
F#|----320530-3205302230-----3h2053p0-3h2053p0223p0---------xx----------------|
B |----320530-3205302230-----3h2053p0-3h2053p0223p0---------xx----------------|

      Play 4x softly         Play 4x more aggresively(use hammer/pick offs)


    Verse 1 (actually it's all bass, but you can play this)
C#|---------------------------------------------------------------------------|
G#|---------------------------------------------------------------------------|
E |---------------------------------------------------------------------------|
B |---------------------------------------------------------------------------|
F#|---------------------------0x0x0x------------------------------------------|
B |----0-0-000-0h1p0-0-0-000--0x0x0x------------------------------------------|

      Play 4x


    Bridge (OK, if you take nothing else away from this tab, take this because it is the 
correct tabbing of the bridge on this site)
C#|---------------------------------------------------------------------------|
G#|---------------------------------------------------------------------------|
E |----10-10-10-10-10-10-10-10-10-10-10-10------------------------------------|
B |----8--8--8--8--0--0--0--0--8--8--8--8---0~~~~~~~~~5*----------------------|
F#|----8--8--8--8--0--0--0--0--8--8--8--8---0~~~~~~~~~5*----------------------|
B |-----------------------------------------0~~~~~~~~~------------------------|

Listen for proper strumming. If you have a wah pedal use it when appropriately by 
to song. It sounds great with the wah. After the harmonics on the 5th fret go into verse 2.

     Verse 2
C#|---------------------------------------------------------------------------|
G#|---------------------------------------------------------------------------|
E |---------------------------------------------------------------------------|
B |-------------------------------5*------------------------------------------|
F#|------------------------0x0x0x-5*------------------------------------------|
B |--0-0-000-0h1p0-0-0-000-0x0x0x---------------------------------------------|

      Again, 4x, then do this:
[ Tab from: http://www.guitartabs.cc/tabs/c/chevelle/clincher_tab_ver_3.html ]
C#|---------------------------------------------------------------------------|
G#|---------------------------------------------------------------------------|
E |---------------------------------------------------------------------------|
B |---7-7-777-7-7-7-777-555555------------------------------------------------|
F#|---5-5-555-5h6h5-555-333333------------------------------------------------|
B |---0-0-000-0-0-0-000-000000------------------------------------------------|

      Play 4x, then go to bridge 2:

     Bridge 2
C#|---------------------------------------------------------------------------|
G#|---------------------------------------------------------------------------|
E |---10-10-10-10-10-10-10-10-------------------------------------------------|
B |---8--8--8--8--0--0--0--0--------------------------------------------------|
F#|---8--8--8--8--0--0--0--0--------------------------------------------------|
B |---------------------------------------------------------------------------|

      Listen for strumming, hit the chorus after that.


     Chorus(This may be a little off, but it's how I play it. Decide for yourself)
C#|---------------------------------------------------------------------------|
G#|---------------------------------------------------------------------------|
E |---------10-9--------------------------------------------------------------|
B |--3-5-3--x--x--3-5---------------------------------------------------------|
F#|--3-3-1--8--7--3-3---------------------------------------------------------|
B |--3-0-0--------3-0---------------------------------------------------------|

     These are the chords, listen for strumming. Play this once here, then go to the interlude.

     Interlude
C#|---------------------------------------------------------------------------|
G#|---------------------------------------------------------------------------|
E |---------------------------------------------------------------------------|
B |---------------------------------------------------------------------------|
F#|---32053--3h2-053023--3h2--053--3h2-053023--3h2053p0-3h2053p0223p0---------|
B |---32053--3h2-053023--3h2--053--3h2-053023--3h2053p0-3h2053p0223p0---------|
      PM...............  open PM.............  open(2x for this open part)

After this is the part where Pete is screaming "NOW SATURATE". It's played the same as 
intro (aggressive part)

Then go to the Chorus riff three times and back to the "NOW SATURATE" aggressive part 
finish with the part where Pete is kinda whispering "now saturate" with the soft strumming 
the intro.

I hope this isn't too confusing. Listen to the song a lot and the tab will become more 
This is pretty close to being exactly right. Have fun.
Comments