Chevelle - Clincher Chords & Tabs

 

Clincher Chords & Tabs

Chevelle Chords & Tabs

Version: 2 Type: Tab 0 ratings
1 star 2 stars 3 stars 4 stars 5 stars
comments

Clincher Tab

   
-----------------------------------------------------------------------------
			     THE CLINCHER - Chevelle
-----------------------------------------------------------------------------
Tabbed by: andrew_128
Band: Chevelle
Song: The Clincher
Album: This Type of Thinking (Could Do Us In)
Tuning: Drop A# (A# F A# D# G C)

Main Riff

C |--------------------------------------------------------------------------|
G |--------------------------------------------------------------------------|
D#|--------------------------------------------------------------------------|
A#|--------------------------------------------------------------------------|
F |--------------------------------------------------------------------------|
A#|-3-2-0-5-3-0-3-2-0-5-3-0-3-2-0-2------------------------------------------|

Main Riff (Heavy)

C |--------------------------------------------------------------------------|
G |--------------------------------------------------------------------------|
D#|--------------------------------------------------------------------------|
A#|-3-2-0-5-3-0-3-2-0-5-3-0-3-2-0-2------------------------------------------|
F |-3-2-0-5-3-0-3-2-0-5-3-0-3-2-0-2------------------------------------------|
A#|-3-2-0-5-3-0-3-2-0-5-3-0-3-2-0-2------------------------------------------|

1st verse no guitar.

Before 2nd Verse: (Clean Guitar)

C |---------------------------------------------------------------------------|
G |---------------------------------------------------------------------------|
D#|-1010101010101010-1010101010/9-9/5-1010101010101010-10/9-------------------|
A#|-8-8-8-8-8-8-8-8--x-x-x-x-x--x-x-x-8-8-8-8-8-8-8-8--x-----let ring---------|
F |-8-8-8-8-8-8-8-8--8-8-8-8-8 /7-7/3-8-8-8-8-8-8-8-8--8-/7-------------------|(5)
A#|-8-8-8-8-8-8-8-8--0-0-0-0-0--0-0-0-8-8-8-8-8-8-8-8--0--0-------------------|

Verse 2:
[ Tab from: http://www.guitartabs.cc/tabs/c/chevelle/clincher_tab_ver_2.html ]
C |--------------------------------------------------------------------------|
G |--------------------------------------------------------------------------|
D#|--------------------------------------------------------------------------|
A#|-0~~~~~~~~~~~~~~~~~~~~----------------------------------------------------|
F |----------------------0--0--0-(5)-----------------------------------------|
A#|----------------------0--0--0---------------------------------------------|
                         x  x  x

Then....

C |--------------------------------------------------------------------------|
G |--------------------------------------------------------------------------|
D#|--------------------------------5-5-5-5-5---------------------------------|
A#|-0--0--0-0-0--1-0-1-0--0-0-0-0--5-5-5-5-5---------------------------------|
F |-0--0--0-0-0--1-0-1-0--0-0-0-0--3-3-3-3-3---------------------------------|
A#|-0--0--0-0-0--1-0-1-0--0-0-0-0--------------------------------------------|

Then....(clean guitar)

C |--------------------------------------------------------------------------|
G |--------------------------------------------------------------------------|
D#|-1010101010101010-1010101010/9-9/5----------------------------------------|
A#|-8-8-8-8-8-8-8-8--x-x-x-x-x--x-x-x----------------------------------------|
F |-8-8-8-8-8-8-8-8--8-8-8-8-8 /7-7/3----------------------------------------|
A#|-8-8-8-8-8-8-8-8--0-0-0-0-0--0-0-0----------------------------------------|

Chorus:

C |--------------------------------------------------------------------------|
G |--------------------------------------------------------------------------|
D#|-1010101010101010-1010101010/9-9/5--5-5-5-5-5-5-5-5--5-5-5-5-5-5-5-5------|
A#|-8-8-8-8-8-8-8-8--x-x-x-x-x--x-x-x--3-3-3-3-3-3-3-3--5-5-5-5-5-5-5-5------|
F |-8-8-8-8-8-8-8-8--8-8-8-8-8 /7-7/3--3-3-3-3-3-3-3-3--3-3-3-3-3-3-3-3------|
A#|-8-8-8-8-8-8-8-8--0-0-0-0-0--0-0-0--3-3-3-3-3-3-3-3-----------------------|

Main Riff

Main Riff (Heavy)

Chorus


Thats it...Enjoy.
Comments