Chevelle - Clincher Chords & Tabs

 

Clincher Chords & Tabs

Chevelle Chords & Tabs

Version: 1 Type: Tab 0 ratings
1 star 2 stars 3 stars 4 stars 5 stars
comments

Clincher Tab

A great song off of the new album, all of their instruments have been tuned down
another half step, to drop A#.

Tuning(low to high): A# F A# D# G C (drop D tuning down 2 full steps)

very strange riff, listen to record for exact rhythm

Intro (first note with lots of feedback)
 C|-----------------------------------------------------------------||
 G|-----------------------------------------------------------------||
D#|-----------------------------------------------------------------||
A#|-----------------------------------------------------------------||
 F|-----------------------------------------------------------------||
A#|---/20------3/2--0--5/3--0-3/2-0--5/3--0--3/2--0-0---2---3--0----||

Main riff 
 C|-----------------------------------------------------------------||
 G|-----------------------------------------------------------------||
D#|-----------------------------------------------------------------||
A#|------------3/2--0--5/3--0-3/2-0--5/3--0--3/2--0-0---2---3--0----||
 F|------------3/2--0--5/3--0-3/2-0--5/3--0--3/2--0-0---2---3--0----||
A#|------------3/2--0--5/3--0-3/2-0--5/3--0--3/2--0-0---2---3--0----||

1st Verse (after bass, these muted strings come in with weird effect)
 C|-----------------------------------------------------------------||
 G|-----------------------------------------------------------------||
D#|-----------------------------------------------------------------||
A#|---00000---------------------------------------------------------||
 F|---00000---------------------------------------------------------||
A#|---00000---------------------------------------------------------||
   pm -----
[ Tab from: http://www.guitartabs.cc/tabs/c/chevelle/clincher_tab.html ]
Bridge (you can figure out how many times to strum)
 C|-----------------------------------------------------------------||
 G|-----------------------------------------------------------------||
D#|---10--10--5-----------------------------------------------------||
A#|---x---10--x-----------------------------------------------------||
 F|---8---8---3-----------------------------------------------------||
A#|-----------------------------------------------------------------||
end with  ^  second time through

Verse 2
 C|----------5-------------------------5----------------------------||
 G|--------------3~~~~~~~~~~~--------------3~~~~~~~~~~~~------------||
D#|-----------------------------------------------------------------||
A#|---0000----------------------0000--------------------------------||
 F|---0000----------------------0000--------------------------------||
A#|---0000----------------------0000--------------------------------||
   pm ----                  pm  ----

1st Chorus (this is not exact, you get the idea)
 C|-----------------------------------------------------------------||
 G|-----------------------------------------------------------------||
D#|-----------------------------------------------------------------||
A#|---12--12--12----13p12-12--12-12-12-12----10-10-10-10-10-10------||
 F|---12--12--12----13p12-12--12-12-12-12----10-10-10-10-10-10------||
A#|---12--12--12----13p12-12--12-12-12-12----10-10-10-10-10-10------||


2nd Chorus (this is not exact, listen for rhythm)
 C|-----------------------------------------------------------------||
 G|-----------------18-18-18----------------------------------------||
D#|-----------------x--x--x-----------------------------------------||
A#|---15--15--15----15-15-15--15/14-14-14----10-10------------------||
 F|---15--15--15----15-15-15--15/14-14-14----10-10------------------||
A#|---15--15--15----15-15-15--15/14-14-14----10-10------------------||
Comments