Chevelle - Blank Earth Chords & Tabs

 

Blank Earth Chords & Tabs

Chevelle Chords & Tabs

Version: 2 Type: Tab 0 ratings
1 star 2 stars 3 stars 4 stars 5 stars
comments

Blank Earth Tab

Chevelle
Point # 1
Blank Earth

Tabbed by: deftones17
Email: adr_enaline@hotmail.com
AIM: popnshroomz
Date: April 4, 2004

Tuning: DGCFAD

Very Important!!! Tuning is 1 step down (D-G-C-F-A-D).  The song will sound like ass if
you try to play it any other tuning.  This song is so amazingly easy that it probably
won't take you more than 15 minutes to get it right. Cheers!
[ Tab from: http://www.guitartabs.cc/tabs/c/chevelle/blank_earth_tab_ver_2.html ]
Intro- number of strums may be off, but you'll get the idea when you listen to the song. 
----------------------------------------------------------------------------------------------------------------------
-------------------------------------------------------------------------------0-----------0--------------------------
-------------------------------------------------------------------------------0-----------0--------------------------
-9-9-9-9-9-9-9-9-9-9-9-9-9-9--5-5-5-5-5-5-5-5-5-5--4/5-5-5---4/5-5-5-----2-2-2-2-2-2-2-2-2-2--5-5-5-5-5-5-5-5-5-5-5-5-
-9-9-9-9-9-9-9-9-9-9-9-9-9-9--5-5-5-5-5-5-5-5-5-5--4/5-5-5---4/5-5-5-----2-2-2-2-2-2-2-2-2-2--5-5-5-5-5-5-5-5-5-5-5-5-
-7-7-7-7-7-7-7-7-7-7-7-7-7-7--3-3-3-3-3-3-3-3-3-3--2/3-3-3---2/3-3-3-----0-0-0-0-0-0-0-0-0-0--3-3-3-3-3-3-3-3-3-3-3-3-
Chorus- same as intro almost exactly except here:                ^               ^  - make sure you hit the open 
Just listen to the song and you'll understand what Imean.                             strings two or three times

----------------------------------------------------------------
----------------------------------------------------------------
-12h13-13-12h13-13-12h13-13-13-12h13p12-12-12-12\10-10-10-------
----------------------------------------------------------------
----------------------------------------------------------------
----------------------------------------------------------------
                                               
Interulude 3x. then through end of song without the harmonics
---------------------------------------------------------------------
---------------------------------------------------------------------
---------------------------------------------------------------------
-7-x-x-x-x-2-x-x-x-x-3-x-x-x-x-0-0-0-0---------------------|----2----
-7-x-x-x-x-2-x-x-x-x-3-x-x-x-x-0-0-0-0---------------------|----2----
-7-x-x-x-x-2-x-x-x-x-3-x-x-x-x-0-0-0-0---------------------|----0----

					End on Dmaj

Chevelle kicks ass!  Check out my other tabs and don't forget to rate/comment.  Laterz
Comments