Chevelle - Blank Earth Chords & Tabs

 

Blank Earth Chords & Tabs

Chevelle Chords & Tabs

Version: 1 Type: Tab 0 ratings
1 star 2 stars 3 stars 4 stars 5 stars
comments

Blank Earth Tab

Author/Artist: Chevelle
Title: Blank Earth
Album: Point no 1
Transcribed by: J. Lane
Email: Tmccans@charter.net

This song (and all of the album except Mia) is really easy to play. Its all in d
ropped D tuning and no real effects but it is still stick pretty sic. 

------------------------------------------------------------------------------
-----------------------------------------------------------3-3-3-3------------
-----------------------------------------------------------2-2-2-2------------
-7-7-7-7-7-7-7--3-3-3-3-3-3-3--2/3-3-3-3--2/3-3-3-3--0-0-0-0-0-0-0--3-3-3-3---
-7-7-7-7-7-7-7--3-3-3-3-3-3-3--2/3-3-3-3--2/3-3-3-3--0-0-0-0-0-0-0--3-3-3-3---
-7-7-7-7-7-7-7--3-3-3-3-3-3-3--2/3-3-3-3--2/3-3-3-3--0-0-0-0-0-0-0--3-3-3-3---
 intro / verse / chorus                                                       
[ Tab from: http://www.guitartabs.cc/tabs/c/chevelle/blank_earth_tab.html ]
------------------------------------------------------------------------------
------------------------------------------------------------------------------
-9h10-10-9h10-10-9h10-10-10-9h10p9-9-9-9-9\7-7-7------------------------------
------------------------------------------------------------------------------
------------------------------------------------------------------------------
------------------------------------------------------------------------------
 Interlude 1 (background)                                                     

-----------------------------------------------------------|------------------
---------------------------------3-3-3---------------------|------------------
---------------------------------2-2-2---------------------|------------------
-7-x-x-x-x-2-x-x-x-x-3-x-x-x-x-0-0-0-0---------------------|----0-------------
-7-x-x-x-x-2-x-x-x-x-3-x-x-x-x-0-0-0-0---------------------|----0-------------
-7-x-x-x-x-2-x-x-x-x-3-x-x-x-x-0-0-0-0---------------------|----0-------------
 Interlude 2 (ending) Last time play full notes no muting     End with
Comments