Chevelle - Bend The Bracket Chords & Tabs

 

Bend The Bracket Chords & Tabs

Chevelle Chords & Tabs

Version: 3 Type: Tab 0 ratings
1 star 2 stars 3 stars 4 stars 5 stars
comments

Bend The Bracket Tab

   
This is probly my favorite song their cd, i been looking round for a good tab and
couldnt find one that sounded right so i tried tabbing it myself, this is my first
tab so go easy.

Chevelle
Bend The Bracket
This type of Thinking could do us in
Tabbed by: ph_ryeman_2004@yahoo.com

This is in standard Tuneing down a 1/2 step
Eb Ab Db Gb Bb Eb

*=Strum
Stumming Pattern is easy to figure out just listen to the song

Intro x 2

Eb/----------------------------------------------------------------------/
Bb/----------------------------------------------------------------------/
Gb/---------------0-----------0------0---------------0----------0------0-/
Db/--8*----9---9-------9---9------9----9--8*---9---9------9---9------9---/
Ab/--6------------------------------------6------------------------------/
Eb/--6---7---7-------7---7------7---------6--7---7------7---7------7-----/

Verse x 4

Eb/---------------/
Bb/---------------/
Gb/---------------/
Db/--8*/11----9*--/
Ab/--6-/9-----7---/
Eb/--6-/9-----7---/

Chorus x 2

Eb/---------------/ On last time through
Bb/---------------/ strum the last chord once for 
Gb/---------4*----/ the bridge
Db/--8*-6*--4--6*-/
Ab/--6--4---2--4--/
Eb/--6--4------4--/
[ Tab from: http://www.guitartabs.cc/tabs/c/chevelle/bend_the_bracket_tab_ver_3.html ]
Intro x 1
(let last note ring)
Eb/----------------------------------------------------------------------/
Bb/----------------------------------------------------------------------/
Gb/---------------0-----------0------0---------------0----------0------0-/
Db/--8*----9---9-------9---9------9----9--8*---9---9------9---9------9---/
Ab/--6------------------------------------6------------------------------/
Eb/--6---7---7-------7---7------7---------6--7---7------7---7------7-----/


Verse x 4

Eb/---------------/
Bb/---------------/
Gb/---------------/
Db/--8*/11----9*--/
Ab/--6-/9-----7---/
Eb/--6-/9-----7---/

Chorus x 2

Eb/---------------/ Again On last time through
Bb/---------------/ strum the last chord once 
Gb/---------4*----/ 
Db/--8*-6*--4--6*-/
Ab/--6--4---2--4--/
Eb/--6--4------4--/

Riff x 5

Eb/-----------------------------------------------/
Bb/-----------------------------------------------/
Gb/--------------0---------0----0-----------4-----/
Db/--8*----9---9-----9---9----9---9---7--5--4--4--/
Ab/--6--------------------------------5--3--2--4--/
Eb/--6---7---7-----7---7----7---------5--3-----2--/

Verse x 4

Eb/---------------/
Bb/---------------/
Gb/---------------/
Db/--8*/11----9*--/
Ab/--6-/9-----7---/
Eb/--6-/9-----7---/

Chorus x 2

Eb/---------------/ Again On last time through
Bb/---------------/ strum the last chord once 
Gb/---------4*----/ 
Db/--8*-6*--4--6*-/
Ab/--6--4---2--4--/
Eb/--6--4------4--/

Intro x 4(fades till end)

Eb/----------------------------------------------------------------------/
Bb/----------------------------------------------------------------------/
Gb/---------------0-----------0------0---------------0----------0------0-/
Db/--8*----9---9-------9---9------9----9--8*---9---9------9---9------9---/
Ab/--6------------------------------------6------------------------------/
Eb/--6---7---7-------7---7------7---------6--7---7------7---7------7-----/



Well there you have it, just follow the tab straight through, i think its pretty
close, if you have any questions please feel free to email me at ph_ryeman_2004@yahoo.com
Comments