Chevelle - Bend The Bracket Chords & Tabs

 

Bend The Bracket Chords & Tabs

Chevelle Chords & Tabs

Version: 1 Type: Tab 0 ratings
1 star 2 stars 3 stars 4 stars 5 stars
comments

Bend The Bracket Tab

   
This is an easy song... u will notice Pete likes to play on different parts of the
strings either near the bridge or over the hole
This song is tuned standard tuning down a half step.
Eb Ab Db Bb Gb Eb

* = Strum

Intro x2
----------------------|
----------------------|
-9*-------------------|
-9-------9-7-----9-7--|
-7--------------------|
-----8-8-----8-8------|

Verse x4

---------------|
---------------|
-9*-/12-12--5*-|
-9--/12-12--5--|
-7--/10-10--3--|
---------------|

Chorus x2 (on second time strum once and hold last A chord)
[ Tab from: http://www.guitartabs.cc/tabs/c/chevelle/bend_the_bracket_tab.html ]
--------------|
--------------|
-10*-7*-5*-7*-|
-10--7--5--7--|
-8---5--3--5--|
--------------|

?? Riff (This is a riff he puts in after the second chorus,  its mostly just the intro 
more to it.)

----------------------------------|
----------------------------------|
-9*-------------------7*-5*-4*----|
-9-------9-7-----9-7--7--5--4-4--|
-7--------------------5--3--2-4--|
-----8-8-----8-8---------------2--|

Song Structure
Intro x2
Verse x4
Chorus x2
Intro x2
Verse x2
Chorus x2
?? Riff x4
Verse x4
Chorus x4
Intro x4 until end.
tabbed my HavocDemon questions or comments e-mail them to: humanclay117@yahoo.com
Comments