Chevelle - An Evening With El Diablo Chords & Tabs

 

An Evening With El Diablo Chords & Tabs

Chevelle Chords & Tabs

Version: 3 Type: Tab 0 ratings
1 star 2 stars 3 stars 4 stars 5 stars
comments

An Evening With El Diablo Tab

   
Tabbed by rudy b.
e-mail   :   statikrbr5@hotmail.com


riff a (full distorcion)

e|---------------------|
B|---------------------|
G|---------------------|
D|-5-5-5-5-5-5-6-5-----|
A|-5-5-5-5-5-5-6-5-----|
E|-3-3-3-3-3-3p4p3-----|  8x

Riff b (clean)
e|---------------------------------------------------------|
B|---------------------------------------------------------|
G|---------------------------------------------------------|
D|---------------------------------------------------------|
A|-5-5-5-5-5-5-5-5-5-5-5-5-5-5-5-4-4-4-4-4-4-4-4-4-4-4-4-4-|
E|---------------------------------------------------------| 4x

Riff A 8x
Riff b 2x (distorción)
[ Tab from: http://www.guitartabs.cc/tabs/c/chevelle/an_evening_with_el_diablo_tab_ver_3.html ]
Riff c (distorción)
e|----------------------------------------------|
B|----------------------------------------------|
G|----------------------------------------------|
D|----------------------------------------------| 
A|---------------5-5-5-----------------4-4-4----|
E|-2-2-2-2-2-2-2-------2-2-2-2-2-2-2-2----------|

Riff a 8x        .... then comes the bass solo......

Riff d     
e|----------------------------------------3-------------2-----|
B|-----------------------------------------3-------------2----|
G|------------------------------------------------------------|
D|-2-2-2-2-2-3-3-3-3-3-2-2-2-2-2-3-3-3-3-3-----2-2-2-2-2------|
A|-2-2-2-2-2-3-3-3-3-3-2-2-2-2-2-3-3-3-3-3-----2-2-2-2-2------|
E|-2-2-2-2-2-3-3-3-3-3-2-2-2-2-2-3-3-3-3-3-----2-2-2-2-2------|

e|--------------------------------------------------------|
B|--------------------------------------------------------|
G|--------------------------------------------------------|
D|-2-2-2-2-2-3-3-3-3-3-2-2-2-2-2-3-3-3-3-3-2-2-2-2-2------|
A|-2-2-2-2-2-3-3-3-3-3-2-2-2-2-2-3-3-3-3-3-2-2-2-2-2------|
E|-2-2-2-2-2-3-3-3-3-3-2-2-2-2-2-3-3-3-3-3-2-2-2-2-2------|
pm. . . . . .                 . . . . . .
Comments