Chevelle - An Evening With El Diablo Chords & Tabs

 

An Evening With El Diablo Chords & Tabs

Chevelle Chords & Tabs

Version: 1 Type: Bass Tab 0 ratings
1 star 2 stars 3 stars 4 stars 5 stars
comments

An Evening With El Diablo Bass Tab

Song: An Evening with El Diablo
Band: Chevelle
Album: Wonder What's Next
Tabber: Anotheridiot101

Chevelle's songs are all Drop B tuned or C#, except for Sma, Mia,
and Point #1 (those are Drop D)
This song is Drop B!  this tab is 100& correct!

[ Tab from: http://www.guitartabs.cc/tabs/c/chevelle/an_evening_with_el_diablo_btab.html ]
 Intro/Verse Riff  
	                                     3x 
E----------------------------|-----------------------------|
B----------------------------|-----------------------------|
F#--------------------/7-7-7-|---------------------/6-6-6--|
B-4-4-4-4-4-4-4-4-4-4--------|-4-4-4-4-4-4-4-4-4-4---------|


 Chorus Riff 
E---------------------------------------------------------|
B---------------------------------------------------------|
F#--------------------------------------------------------|
B-4--4-4--4-4--4-4-4-4-5-0-----4--4-4--4-4--4-4-4-4-5-0---|


 Bridge 
E--------------------------------------------------------|
B--------------------------------------------------------|
F#-------------------------------------------------------|
B-2-2-2-2-2-2--2-2-2-2-2-2--2-1-1-1-1-1-1--1-1-1-1-1-1---|
Comments