Chet Atkins - Yakety Axe Chords & Tabs

 

Yakety Axe Chords & Tabs

Chet Atkins Chords & Tabs

Version: 3 Type: Tab 0 ratings
1 star 2 stars 3 stars 4 stars 5 stars
comments

Yakety Axe Tab

   
I got this tab from the local guitar shop owner in Flin Flin Manitoba.
he played it and I tabbed it. the version thats already here from what i remember was shart.
Knock your self out and have a good time.
Tabbed By Zach Teneycke

  G
--------3----------------------------------------------------3--------------------------|
--6(8)-----5--3-----3--3--5--3----------------------3--5--3-----------------------------|
-----------------4--------------4/2^0---0--0--2/4---------------------------------------|
----------------------------------------------------------------------------------------|
----------------------------------------------------------------------------------------|
----------------------------------------------------------------------------------------|
^_____________________________^
 This Repeats after the first line
then skip the part right after this and keep playing on the next line

  D                          G                                           C
-----5--7^5------------------/3--3-3-3---/3--3-3-3--/3-3-3-3-----------------------|
--7----------7^5----------------------------------------------5--3---------------5-|
------------------7~~~~---------------------------------------------4--4/5-5-5-5---|
-----------------------------------------------------------------------------------|
-----------------------------------------------------------------------------------|
-----------------------------------------------------------------------------------|

            G                                D                  G
-3-5-6-5-3--7-6-7-6-7--10---6-7-10-----------12--------------------------------|
-------------------------------------8-----------11-10------10-----------------|
--------------------------------------------------------12------12-------------|
-------------------------------------------------------------------------------|
-------------------------------------------------------------------------------|
-------------------------------------------------------------------------------|
[ Tab from: http://www.guitartabs.cc/tabs/c/chet_atkins/yakety_axe_tab_ver_3.html ]
   G7   C                                                                      G
--------8-7-----8------------------------------------------------------8----------------------|
---/8--------11----11-10-9-8-7-8---10-9-8-9-8-7-6-5-4-5-----------8-10----10-8---------8------|
---/10--------------------------------------------------------8-9--------------9-7-7-9----9-7-|
---/9------------------------------------------------------10---------------------------------|
----------------------------------------------------------------------------------------------|
----------------------------------------------------------------------------------------------|

     C                         F                           C          G                 
 C#  D
-------8---8---8-----------------8----8----8---------------8-8--------------------------8--9---10------|
-------8---8---8-----10-8--------8----8----8-----10-8----------10-8-----------8-10-8----8--9---10------|
----/9--/9--/9------------9---/8---/8---/8------------8-------------9-7-7-8-9-----------9--10--11------|
-------------------------------------------------------------------------------------------------------|
-------------------------------------------------------------------------------------------------------|
-------------------------------------------------------------------------------------------------------|

For this next part give all notes on the high e string a little wiggle/shake
   C                                                           G
---------------------------5------------------5-------------3------------5------------3---|
------------------------------------------------------------------------------------------|
---5--5-5-5--5-5-5--5-5-5-----------5--5-5-5------5--5-5-5-----4--4-4-4-----4--4-4-4------|
------------------------------------------------------------------------------------------|
------------------------------------------------------------------------------------------|
------------------------------------------------------------------------------------------|
  ^_________________________^
    Play 2x in a row


 C            C7            F             F#dim           C           G                  
 C  C#  D
-----------8------------6-------------5-------------8-----8-8------------------------------8--9---10---|
--------------------------------------------------------------10-8-------------8-10-8------8--9---10---|
-9--9-9-9-----7--7-7-7------5--5-5-5------8--8-8-8-----------------9--7-7-8-9--------------9--10--11---|
-------------------------------------------------------------------------------------------------------|
-------------------------------------------------------------------------------------------------------|
-------------------------------------------------------------------------------------------------------|
Comments