Chester Bennington - The Morning After Chords & Tabs

 

The Morning After Chords & Tabs

Chester Bennington Chords & Tabs

Version: 2 Type: Tab

The Morning After Tab

   
this my version of the morning after and it souns quite good

tuning one half-step down (D#-G#-C#-F#-A#-D#)
[ Tab from: http://www.guitartabs.cc/tabs/c/chester_bennington/the_morning_after_tab_ver_2.html ]
Verse
D#------------------|------------------|
A#------------------|------------------|
F#------------------|------------------|
C#--4---x-4-4---x-4-|--4---x-2---5-5-2-|
G#--4---x-4-4---x-4-|--4---x-2---5-5-2-|
D#--2---x-2-2---x-2-|--2---x-0---3-3-0-|
    Q   E E Q   E E    Q   E E E E E E
Chorus
D#------------------|------------------|
A#------------------|------------------|
F#--4---x-4---4-4-4-|------------------|
C#--4---x-4---4-4-4-|--5---x-5---5-5-2-|
G#--2---x-2---2-2-2-|--5---x-5---5-5-2-|
D#------------------|--3---x-3---3-3-0-|
    Q   E Q   E E E    Q   E E E E E E
D#------------------|------------------|
A#------------------|------------------|
F#------------------|------------------|
C#--4---x-4-4---x-4-|--4---x-2---5-5-2-|
G#--4---x-4-4---x-4-|--4---x-2---5-5-2-|
D#--2---x-2-2---x-2-|--2---x-0---3-3-0-|
    Q   E E Q   E E    Q   E E E E E E 
Bridge
D#------------------|------------------|------------------|------------------|
A#------------------|------------------|------------------|------------------|
F#--4-----4---4-4-4-|------------------|--7-----7---7-7---|--2-----2---2-2---|
C#--4-----4---4-4-4-|--5-----5---5-5-0-|--7-----7---7-7---|--2-----2---2-2-0-|
G#--2-----2---2-2-2-|--5-----5---5-5-0-|--5-----5---5-5---|--0-----0---0-0-0-|
D#------------------|--3-----3---3-3---|------------------|------------------|
    Q+    Q   E E E    Q+    Q   E E E    Q+    Q   E Q      Q+    Q   E E E