Chester Bennington - The Morning After Chords & Tabs

 

The Morning After Chords & Tabs

Chester Bennington Chords & Tabs

Version: 1 Type: Tab 0 ratings
1 star 2 stars 3 stars 4 stars 5 stars
comments

The Morning After Tab

------------------------------------------------------------
			THE MORNING AFTER
------------------------------------------------------------
		      BY CHESTER BENNINGTON
------------------------------------------------------------

Tabbed by Prophecy (disparage2001@hotmail.com)


		== PLEASE VISIT THESE GREAT ==
	   == LINKIN PARK AND LOSTPROPHETS SITES ==

	 [http://www.lp-intheend.com (Linkin Park)]

	[http://www.lostprophets.net (lostprophets)]


NOTES:  Play Acoustic

	x - mute

Simple Enough...


MAIN RIFF
|-5-x-5-5-x-5-5-x-3--6-6-6--
|-5-x-5-5-x-5-5-x-3--6-6-6--
|-6-x-6-6-x-6-6-x-4--7-7-7--
|-7-x-7-7-x-7-7-x-5--8-8-8--
|-7-x-7-7-x-7-7-x-5--8-8-8--
|-5-x-5-5-x-5-5-x-3--6-6-6--


CHORUS
|-7-x-7-7-7-7-4-x-4-4-4--
|-7-x-7-7-7-7-4-x-4-4-4--
|-8-x-8-8-8-8-5-x-5-5-5--
|-9-x-9-9-9-9-6-x-6-6-6--
|-9-x-9-9-9-9-6-x-6-6-6--
|-7-x-7-7-7-7-4-x-4-4-4--
  Wake me till the morning after ...

[ Tab from: http://www.guitartabs.cc/tabs/c/chester_bennington/the_morning_after_tab.html ]
VARIATION
|-7-x-7-7-7-7-4-x-4-4-4-8--x-8--8--8--5-x-5-5-5-
|-7-x-7-7-7-7-4-x-4-4-4-8--x-8--8--8--5-x-5-5-5-
|-8-x-8-8-8-8-5-x-5-5-5-9--x-9--9--9--6-x-6-6-6-
|-9-x-9-9-9-9-6-x-6-6-6-10-x-10-10-10-7-x-7-7-7-
|-9-x-9-9-9-9-6-x-6-6-6-10-x-10-10-10-7-x-7-7-7-
|-7-x-7-7-7-7-4-x-4-4-4-8--x-8--8--8--5-x-5-5-5-
  			   Im so tired...

|-3-x-3-3-3-6-x-6-6-6-7-x-7-7-7-4-x-4-4-4-
|-3-x-3-3-3-6-x-6-6-6-7-x-7-7-7-4-x-4-4-4-
|-4-x-4-4-4-7-x-7-7-7-8-x-8-8-8-5-x-5-5-5-
|-5-x-5-5-5-8-x-8-8-8-9-x-9-9-9-6-x-6-6-6-
|-5-x-5-5-5-8-x-8-8-8-9-x-9-9-9-6-x-6-6-6-
|-3-x-3-3-3-6-x-6-6-6-7-x-7-7-9-4-x-4-4-4-
  There has got to be an end...

|-5-x-5-5-5-3-x-3-3-3-6-x-6-6-6-
|-5-x-5-5-5-3-x-3-3-3-6-x-6-6-6-
|-6-x-6-6-6-4-x-4-4-4-7-x-7-7-7-
|-7-x-7-7-7-5-x-5-5-5-8-x-8-8-8-
|-7-x-7-7-7-5-x-5-5-5-8-x-8-8-8-
|-5-x-5-5-5-3-x-3-3-3-6-x-6-6-6-
  The pain I feel... 

|-4-|   
|-4-| 
|-5-|  -16 TIMES
|-6-| 
|-6-|
|-4-|
  Alive and Im dreamin... 
Comments