Chespirito - El Chavo Del 8 Chords & Tabs

 

El Chavo Del 8 Chords & Tabs

Chespirito Chords & Tabs

Version: 1 Type: Tab 0 ratings
1 star 2 stars 3 stars 4 stars 5 stars
comments

El Chavo Del 8 Tab

El chavo del 8     


-----------------|-7-5-----------|--------
-8-5-5-5-8-5-5-5-|-----8-7-5-----|--------
-----------------|-----------7-5-|-4-5-7--
-----------------|---------------|--------
-----------------|---------------|--------
-----------------|---------------|--------
                 |  TOCAR RAPIDO |     
[ Tab from: http://www.guitartabs.cc/tabs/c/chespirito/el_chavo_del_8_tab.html ]
-----------------|-7-5-----------|--------
-8-5-5-5-8-5-5-5-|-----8-7-5-----|--------
-----------------|-----------7-5-|-4-5-7--
-----------------|---------------|--------
-----------------|---------------|--------
-----------------|---------------|--------
                 |  TOCAR RAPIDO |     

---------10-7-10-7---
-8-5-8-5-------------
---------------------
---------------------
---------------------
---------------------

-----------------|-7-5-----------|--------
-8-5-5-5-8-5-5-5-|-----8-7-5-----|--------
-----------------|-----------7-5-|-4-5-7--
-----------------|---------------|--------
-----------------|---------------|--------
-----------------|---------------|--------
                 |  TOCAR RAPIDO |     
Comments