Cheryl Lynn - Got To Be Real Chords & Tabs

 

Got To Be Real Chords & Tabs

Cheryl Lynn Chords & Tabs

Version: 1 Type: Bass Tab

Got To Be Real Bass Tab

Cheryl Lynn
Got To Be Real (Bass)
Tuning: Standard
Transcribed by Soch Hean

This is the artist's most well known song. More info about this artist here:
http://www.angelfire.com/ga/seandavis/cheryllynn.html

-One of the most well-known funky bass riffs in history-
Enjoy!

Intro:  (Main Bassline)
|------------------------------|
|-----------3h5----------------|
|-6---6-5----------------------|
|----------------3--3--3---1---| (x2)

|--------------------------------|
|-----------3h5------------------|
|-6---6-5------------------3--5--|
|----------------3--3--3---------|

|------------------------------|
|-----------3h5----------------|
|-6---6-5----------------------|
|----------------3--3--3---1---|

|--------------------------------|
|-----------3h5------------------|
|-6---6-5------------------3--5--|
|----------------3--3--3---------|
[ Tab from: http://www.guitartabs.cc/tabs/c/cheryl_lynn/got_to_be_real_btab.html ]
|-----------------------------|
|-----------------------------|
|-6---6-5---5-----------------|
|---------------3--3--3---1---|

|--------------------------------|
|-----------3h5------------------|
|-6---6-5------------------3--5--|
|----------------3--3--3---------| (x3)

|------------------------------|
|-----------3h5----------------|
|-6---6-5----------------------|
|----------------3--3--3---1---|


(Ooh, your love's for real now...) (0:46)
|-----------------------------------------------------|
|-----------------------------------------------------|
|-3-3--1-3---1-3---1-3-3--1-3-3-3--1-3---1-3--1-3-----|
|-----------------------------------------------------|

(You know, that your love is my love...) (0:54)
|------------------------------------------------------|
|------------------------------------------------------|
|-5---5-5---5-6--6-6--6s8------------5-5-5--5-5--------|
|---------------------------6--6-6---------------------|

-Play the Main bassline- (Repeat)