Cherry Poppin Daddies - God Is A Spider Chords & Tabs

 

God Is A Spider Chords & Tabs

Cherry Poppin Daddies Chords & Tabs

Version: 1 Type: Tab 0 ratings
1 star 2 stars 3 stars 4 stars 5 stars
comments

God Is A Spider Tab

God is a spider
Cherry poppin daddies
---------------------
Tabbed by Dr. Dan

Couldn't find this awesome song tabbed anywhere. This is how I think it goes.
If I have bits of it wrong - tough.



Intro part 1
|------------------------------------------------------------------------------------|
|------------------------------------------------------------------------------------|
|------------------------------------------------------------------------------------|
|------------------------------------------------------------------------------------|
|--------5555------7777-6666------4444-----------5555------7777-4444-----------------|
|---4444------7777-----------4444------3333-4444------7777-----------3333-2222-1111--|


Intro part 2                                          Fill 1
|----------------------------------------------------|--------------------------------|
|----------------------------------------------------|--------------------------------|
|----------------------------------------------------|--------------------------------|
|---11-------------9-6---------9-8------------6-9-8--|--------------------------------|
|---9--13-9-6----6-7-4-9-5---5-7-6-8-9----8-9-4-7-6--|--6h7p6-4h6p4-2h4p2-1h2p1-------|
|------11-7-4----4-----6-3---3-----6-7----6-7--------|--------------------------------|


Verse 1
|-------------------------------------------------------------------|
|-------------------------------------------------------------------|
|-------------------------------------------------------------------|
|----------------------------------9--------------------------------|
|---6--------------------------8-9-7------------------------2-4-5-7-|
|---4--------------------------6-7--------------------------0-2-3-5-|
       What's the matter Jesus       Did you forget my name
       i'm the one with a tumour like a flower in my brain


|--------------------------------------------|
|--------------------------------------------|
|--------------------------------------------|
|-----------------------------6--------999---|
|-----6------8--------9-------4--------777---|
|-----4------6--------7----------------------|
  And I have leant to rue the day that I
 

|-----------------------------------------|
|-----------------------------------------|
|-----------------------------------------|
|----------------------6----99-11-9--6----|
|-----6--------8---9---4----77-9--7--4----|
|-----4--------6---7----------------------|
  Slipped from my utopia of amniotic slime



Chorus part 1
|-----------------------------------------------------------------------------------|
|-----------------------------------------------------------------------------------|
|-----------------------------------------------------------------------------------|
|--8----------------------9-----------------------------------------------9-----88--|
|--6-5-6--------------8-9-7---------------9-8-4------------------9--------7-----66--|
|----3-4--------------6-7-----------------7-6-2------------------7------------------|
       God is a spider     God is a spider      God is a spider trying to block my path



|---------------------------------------------------------------------------------------------|
|---------------------------------------------------------------------------------------------|
|---------------------------------------------------------------------------------------------|
|--8----------------------9---------------------8888888899998888---9-----8--------------------|
|--6-5-6--------------8-9-7---------------9-8----------------------7-----6---9----8---6----4--|
|----3-4--------------6-7-----------------7-6--------------------------------7----6---4----2--|
       God is a spider     God is a spider      God is a spider    trying to block my path


Chorus part 2
|---------------------------------------------------------|
|---------------------------------------------------------|
|---------------------------------------------------------|
|--------------------9-----------------------8---7--8-----|
|--6-----------------7----4------------------6---5--6-----|
|--4----------------------2-------------------------------|
    It's a matter of fate, it's a matter of love in to 
   hate          Mistakes I wanna make my final disgrace


|---------------------------------------------------------|
|---------------------------------------------------------|
|---------------------------------------------------------|
|---------------------------------------------------------|
|--6-6666-5-4-2-2222-2-4-6-6666---------------------------|
|--4-4444-3-2-0-0000-0-2-4-4444---------------------------|
                                 My final disgrace
                                 Mayday mayday mayday mayday

Intro part 1
|------------------------------------------------------------------------------------|
|------------------------------------------------------------------------------------|
|------------------------------------------------------------------------------------|
|------------------------------------------------------------------------------------|
|--------5555------7777-6666------4444-----------5555------7777-4444-----------------|
|---4444------7777-----------4444------3333-4444------7777-----------3333-2222-1111--|


Verse 2
|---------------------------------------------------------------|
|---------------------------------------------------------------|
|---------------------------------------------------------------|
|------------------------------9--------------------------------|
|--------------------------8-9-7------------------------2-4-5-7-|
|---4444-2222-0000---------6-7--------------------------0-2-3-5-|
      I was born a taurus            And not a toreador

[ Tab from: http://www.guitartabs.cc/tabs/c/cherry_poppin_daddies/god_is_a_spider_tab.html ]
|-------------------------------------------------------------------|
|-------------------------------------------------------------------|
|-------------------------------------------------------------------|
|----------------------------------9--------------------------------|
|---6--------------------------8-9-7------------------------2-4-5-7-|
|---4--------------------------6-7--------------------------0-2-3-5-|
       I can't join your chorus     I'm getting way to bored   and I don't


|---------------------------------------------|
|---------------------------------------------|
|---------------------------------------------|
|------------------------------6--------999---|
|-----6-------8--------9-------4--------777---|
|-----4-------6--------7----------------------|
     want to die    alone I'll plug my ears
 

|-------------------------------------------------|
|-------------------------------------------------|
|-------------------------------------------------|
|-----------------------6------99-------11-9-6----|
|-----6-----8----9------4------77-------9--7-4----|
|-----4-----6----7--------------------------------|
     Why am I disgusted by the things I overhear


Chorus part 1
|-----------------------------------------------------------------------------------|
|-----------------------------------------------------------------------------------|
|-----------------------------------------------------------------------------------|
|--8----------------------9-----------------------------------------------9-----88--|
|--6-5-6--------------8-9-7---------------9-8-4------------------9--------7-----66--|
|----3-4--------------6-7-----------------7-6-2------------------7------------------|
       God is a spider     God is a spider      God is a spider trying to block my path



|---------------------------------------------------------------------------------------------|
|---------------------------------------------------------------------------------------------|
|---------------------------------------------------------------------------------------------|
|--8----------------------9---------------------8888888899998888---9-----8--------------------|
|--6-5-6--------------8-9-7---------------9-8----------------------7-----6---9----8---6----4--|
|----3-4--------------6-7-----------------7-6--------------------------------7----6---4----2--|
       God is a spider     God is a spider      God is a spider    trying to block my path


Ska type section
|-------4-----4--------2-------3---------4-----4--------2-------3----|
|-------4-----4--------2-------3---------4-----4--------2-------3----|
|-------4-----4--------2-------4---------4-----4--------2-------4----|
|--------------------------------------------------------------------|
|-----6---6-6----6---4---4---5---------6---6-6----6---4---4---5------|
|---4--------------2-------3---------4--------------2-------3--------|
                           Trying to block my path


|-x---4--x--4--x---4--x-4--x--2---x------2-x----3--x--3---|
|-x---4--x--4--x---4--x-4--x--2---x------2-x----3--x--3---|
|-x---4--x--4--x---4--x-4--x--2---x------2-x----4--x--4---|
|-x---6--x--6--x---6--x-6--x--4---x------4-x----5--x--5---|
|-x---6--x--6--x---6--x-6--x--4---x------4-x----5--x--5---|
|-x---4--x--4--x---4--x-4--x--2---x------2-x----3--x--3---|
  Crows in the cornfield   reaper swings a scythe
  I    know a venomous bird about to fly


|-------------------------------------------------------------------------|
|-------------------------------------------------------------------------|
|-------------------------------------------------------------------------|
|-------------------------------------------------------------------------|
|--6------------------------8------------9----------------6---------------|
|--4------------------------6------------7----------------4---------------|
   Smear the paint till the colours run, it's nearly time I'm nearly done


|---------------------------|
|---------------------------|
|---------------------------|
|---------------------------|
|--8-------9------11---13---|
|--6-------7------9----11---|
   Flaming orange open sky


Chorus part 2
|---------------------------------------------------------|
|---------------------------------------------------------|
|---------------------------------------------------------|
|--------------------9-----------------------8---7--8-----|
|--6-----------------7----4------------------6---5--6-----|
|--4----------------------2-------------------------------|
    It's a matter of fate, it's a matter of love in to 
   hate          Mistakes I wanna make my final disgrace


Intro part 1
|------------------------------------------------------------------------------------|
|------------------------------------------------------------------------------------|
|------------------------------------------------------------------------------------|
|------------------------------------------------------------------------------------|
|--------5555------7777-6666------4444-----------5555------7777-4444-----------------|
|---4444------7777-----------4444------3333-4444------7777-----------3333-2222-1111--|
                                       My final disgrace                    Mayday mayday 

Intro part 2
|---------------------------------------------------------|
|---------------------------------------------------------|
|---------------------------------------------------------|
|--------11-------------9-6---------9-8------------6-9-8--|
|--------9--13-9-6----6-7-4-9-5---5-7-6-8-9----8-9-4-7-6--|
|-----------11-7-4----4-----6-3---3-----6-7----6-7--------|
mayday mayday

                                                      Fill 1
|----------------------------------------------------|---------------------------|-----|
|----------------------------------------------------|---------------------------|-----|
|----------------------------------------------------|---------------------------|-----|
|---11-------------9-6---------9-8------------6-9-8--|---------------------------|-----|
|---9--13-9-6----6-7-4-9-5---5-7-6-8-9----8-9-4-7-6--|--6h7p6-4h6p4-2h4p2-1h2p1--|--6--|
|------11-7-4----4-----6-3---3-----6-7----6-7--------|---------------------------|--4--|


FIN
Comments