Cherry Monroe - Down Chords & Tabs

 

Down Chords & Tabs

Cherry Monroe Chords & Tabs

Version: 1 Type: Tab 0 ratings
1 star 2 stars 3 stars 4 stars 5 stars
comments

Down Tab

   
Artist: Cherry Monroe
Song: Down
Album: Cherry Monroe (2004)
Tab by: Rob Schuster
Email: nopoeticdevice@graffiti.net

  Intro
e|----------------------------------|
B|----------------------------------|
G|----------------------------------|
D|-7-8-7----7---7-8-7----7--7-8-10--|
A|-------10-----------10------------|
E|----------------------------------|

  Build Up (Just Palm Mute it a bunch of times)
e|-----|
B|-----|
G|-8---|
D|-8---|
A|-6---|
E|-----|
[ Tab from: http://www.guitartabs.cc/tabs/c/cherry_monroe/down_tab.html ]
  Chorus
Lead Guitar
1st Lick		2nd Lick
e|-------|  e|-------------------|
B|-------|  B|-------------------|
G|---7h9-|  G|-------7p6---------|
D|-9-----|  D|-7p6-6-----6-7p6-6-|
A|-------|  A|----7-----7-----7--|
E|-------|  E|-------------------|

Rhythm Guitar
(These are just the chords, I trust you can figure out the strumming on your own)
e|---------|
B|---------|
G|-7-2-9-4-|
D|-7-2-9-4-|
A|-5-0-7-2-|
E|---------|

Then at the end of the chors
e|-------------|
B|-------------|
G|-77-22----44-|
D|-77-22-22-44-|
A|-55-00-22-22-|
E|-------00----|

Basically that's all you need to know, I can't figure out the wah part becasue I broke
my wah pedal when I tried to modify it but, in time.
Comments