Cher - I Got You Babe Chords & Tabs

 

I Got You Babe Chords & Tabs

Cher Chords & Tabs

Version: 1 Type: Tab 0 ratings
1 star 2 stars 3 stars 4 stars 5 stars
comments

I Got You Babe Tab

Just copy/paste this into a blank document and resize the text to make it
legible-this is a very accurate tab

Sonny & Cher
I GOT YOU BABE


                     Intro
|--------------------|e
|------0-0-------0-0-|B
|-2-2--0-0--2-2--x-x-|G
|-3-3--3-3--2-2--2-2-|D
|-3-3-------3-3--3-3-|A
|--------------------|E

They Say we're young and we don't know, we won't find out till we grow
|----------------------------------------------|e
|-1--1--1-1--1-1-1--1--1--1-1--0---------------|B
|---------------------------------2-(0)--------|G
|----------------------------------------3--2--|D
|----------------------------------------------|A
|----------------------------------------------|E

Well, I don't know if all that's true, cause you got me, and baby, I got you
|--------------------------------------------------|e
|-1--1-1--1--1-1-1--1-----1-1--1--1--0-------------|B
|----------------------2----------------2--0-----0-|G
|---------------------------------------------3----|D
|--------------------------------------------------|A
|--------------------------------------------------|E

Chorus
Babe,  I Got you babe  I got you babe
|----------------------------------|e
|------0-3--1------0-3--1----------|B
|-2------------2-----------2-------|G
|----------------------------------|D
|----------------------------------|A
|----------------------------------|E

They Say our love won't pay the rent, Before it's earned our money's all been...
|----------------------------------------------------------|e
|-1--1--1--1--1-1-1--1-----1--1-1-----0--------------------|B
|-----------------------2----------2-----2--0-----0----(0)-|G
|----------------------------------------------3-----------|D
|----------------------------------------------------------|A
|----------------------------------------------------------|E
[ Tab from: http://www.guitartabs.cc/tabs/c/cher/i_got_you_babe_tab.html ]
I Guess That's so, we don't have a pot, But at least I'm sure of all the things...
|---------------------------------------------------------|e
|-1--1--1-1--1-1--1--1--1--1-1--1--1--1-----0-------------|B
|----------------------------------------2-----2--0-----0-|G
|----------------------------------------------------3----|D
|---------------------------------------------------------|A
|---------------------------------------------------------|E

Chorus II (With Bridge)
Repeat Chorus I then play below

I Got flowers in the spring, I Got you to wear my ring  And When I'm Sad,
|-------------------------------------------------------------------1-1-1--1--(1|e
|-0----------------------0--1--(1)--(1)-0----------------3--1--(1)--------------|B
|----2--0--0-(0)--(0)-2-------------------2--0--(0)--0-2------------------------|G
|-------------------------------------------------------------------------------|D
|-------------------------------------------------------------------------------|A
|-------------------------------------------------------------------------------|E

...You're a clown,  And if I get scared you're always around_______
|-1--0--1--(1)--1--1-1-0--1--(1)--3--3-3-1--3--(3)-1-3--3--(3)-|e
|--------------------------------------------------------------|B
|--------------------------------------------------------------|G
|--------------------------------------------------------------|D
|--------------------------------------------------------------|A
|--------------------------------------------------------------|E

So, Let them say your hair's too long, cause I don't care with you I can't do...
|--------------------------------------------------------|e
|-1--1--1-1--1-1--1-1-----1--1-1-----0-------------------|B
|----------------------2----------2-----2--0-----0---(0)-|G
|---------------------------------------------3----------|D
|--------------------------------------------------------|A
|--------------------------------------------------------|E

Then Put your little hand in mine, There ain't no hill or mountain we can't climb
|-----------------------------------------------------|e
|-1--1-1--(1)-1-1--1-1--1--1-1-1--1-----0-------------|B
|------------------------------------2-----2--0-----0-|G
|------------------------------------------------3----|D
|-----------------------------------------------------|A
|-----------------------------------------------------|E

REPEAT FIRST CHORUS 2 TIMES & ON LAST PART FADE OUT
Comments