Cheese - Parusa Chords & Tabs

 

Parusa Chords & Tabs

Cheese Chords & Tabs

Version: 1 Type: Tab 0 ratings
1 star 2 stars 3 stars 4 stars 5 stars
comments

Parusa Tab

   
Song:Parusa
Band:Cheese
Album:Pilipinas
By:Dean Quez-0!!
Binabati koh nga poh pla ung mga fweds koh c Phoy,Lheo,Mack2,at mri png iba!!

Tuning: Tune guitar 2 1/2 step down then drop d (A E A d F# B).

Intro: (you have to figure out the rhythm)
B ------------------    ----------------------------|
F#------------------    ----------------------------|
D ------------------4x  ----------------------------|
A -2-2-2-2p0-0-2/6--    --------------2-8-7---------|
E -2-2-2-2p0-0-2/6--    --------------2-8-7---------|
A -2-2-2-2p0-0-2/6--    --11p0-0-12p0-2-8-7-65432---|

Verse:
   ___________________________________
  |             4x                    |
B ---------------------------  -------|
F#---------------------------  -------|
D ---------------------------2x-------|
A ---------------------------  -3-3-3-|
E ---------------------------  -3-3-3-|
A -3p0-0-2p0-0-6p0-0-3p0-0---  -3-3-3-|
For so many years you....

B -------------------|
F#-------------------|
D -------------------|
A -------------------|
E -------------------|
A -3p0-0-2p0-0-6p0-0-|

Chorus:
B --------------|
F#--------------|
D --7-----------|4x
A --7---8---5---|
E --5---8---5---|
A ------8---5---|
Cuz I think you are lying...

Interlude
Gtr. 1
B ------------------|
F#------------------|
D ------------------|4x
A -2-2-2-2p0-0-2/6--|
E -2-2-2-2p0-0-2/6--|
A -2-2-2-2p0-0-2/6--|
Time to think...

Gtr.2
B --------------------------------|
F#--------------------------------|
D --------------------------------|
A ------------------/12-12-10-10--|
E -7--7/11--8-7-8-----------------|
A --------------------------------|
Time to think...

B ------------------    ----------------------------|
F#------------------    ----------------------------|
D ------------------4x  ----------------------------|
A -2-2-2-2p0-0-2/6--    --------------2-8-7---------|
E -2-2-2-2p0-0-2/6--    --------------2-8-7---------|
A -2-2-2-2p0-0-2/6--    --11p0-0-12p0-2-8-7-65432---|
Time to think, Time to reflect...
[ Tab from: http://www.guitartabs.cc/tabs/c/cheese/parusa_tab.html ]
Verse:
   ___________________________________
  |             4x                    |
B ---------------------------  -------|
F#---------------------------  -------|
D ---------------------------2x-------|
A ---------------------------  -3-3-3-|
E ---------------------------  -3-3-3-|
A -3p0-0-2p0-0-6p0-0-3p0-0---  -3-3-3-|
I'm so tired of your stupid rituals...

B -------------------|
F#-------------------|
D -------------------|
A -------------------|
E -------------------|
A -3p0-0-2p0-0-6p0-0-|


Chorus:
B --------------|
F#--------------|
D --7-----------|4x
A --7---8---5---|
E --5---8---5---|
A ------8---5---|
And you keep on denying...

B ---------------------------------------|
F#---------------------------------------|
D ------7--------------------------------|4x
A ----7---7-----5--------3---------10----|
E --5---------5---5----3---5-----8----8--|
A ----------5--------3--------/8---------|
Once a teardrop fell in my hands...

B -----------------------|
F#-----------------------|
D -----------------------|8x
A -----------------------|
E -----------------------|
A --6-7-0-2-3-0-2-0-2-3--|
The world has taken, has taken you...

B -----------------------|
F#-----------------------|
D -----------------------|4x
A --6-7-0-2-3-0-2-0-2-3--|
E --6-7-0-2-3-0-2-0-2-3--|
A --6-7-0-2-3-0-2-0-2-3--|
The world has taken, has taken you...

Chorus:
B --------------|
F#--------------|
D --7-----------|4x
A --7---8---5---|
E --5---8---5---|
A ------8---5---|
And you keep on denying...

gtr.1
B --------------|
F#--------------|
D --7-----------|4x
A --7---8---5---|
E --5---8---5---|
A ------8---5---|

gtr.2
B --------------------------------|
F#--------------------------------|
D -10-10-10/12-12-12\9-9-9/10-10--|
A --------------------------------|
E --8--8--8/10-10-10\7-7-7/8---8--|
A --------------------------------|

B -----------------------------------|
F#-----------------------------------|
D -10-10-10/12-12-12/15-15-15\14-14--|
A -----------------------------------|
E --8--8--8/10-10-10\13-13-13/12-12--|
A -----------------------------------|

B --------------------------------|
F#--------------------------------|
D -10-10-10/12-12-12\9-9-9/10-10--|
A --------------------------------|
E --8--8--8/10-10-10\7-7-7/8---8--|
A --------------------------------|

B --------------------------------------|
F#--------------------------------------|
D -10/12-12-12/15-15-15\14-14-14/17-17--|
A --------------------------------------|
E --8/10-10-10\13-13-13/12-12-12/15-15--|
A --------------------------------------|

B -----
F#-----
D -----
A --2--
E --2--
A --2--

_end_
Comments