Cheese - Mottaka Chords & Tabs

 

Mottaka Chords & Tabs

Cheese Chords & Tabs

Version: 1 Type: Tab 0 ratings
1 star 2 stars 3 stars 4 stars 5 stars
comments

Mottaka Tab

   
SONG: Mottaka
BAND: Cheese
ALBUM: Pilipinas
TRANSCRIBED BY: Ron Moncada (rv_coc@hotmail.com)
PASTE BY:Jeffrey Camposano (incustank@pinoymusika.com)
website: http://justsayemo.musicdot.com ; http://cocband.musicdot.com

KEZO......RULEZzzzzzzzzzz/Muztah mga DaGaaaaaaaaaaaaaaa

Tuning: Tune guitar 2 1/2 step down then drop d (A E A d F# B).

Intro: 
B ------------------------------------------------------------------------
F#------------------------------------------------------------------------
D ------------------------------------------------------------------------
A -----4-5-4h5p4---4-5-5/7-7-5-5-4-4-5-4h5p4---4-----------4h5-4---4h5-4--
E -3-5-----------5---------------------------5---5-5-3-3-5-------5--------
A ------------------------------------------------------------------------

B ------------------------------------------------------------------------
F#------------------------------------------------------------------------
D ------------------------------------------------------------------------
A -----4-5-4h5p4---4-5-5/7-7-5-5-9-9-5-5/7-7-5-5-4-4-5-4h5p4---4----------
E -3-5-----------5-------------------------------------------5---5-5-3-3--
A ------------------------------------------------------------------------

B ----------------------------------------------------------------------------
F#----------------------------------------------------------------------------
D ----------------------------------------------------------------------------
A -----4-5-4h5p4---4-5-5/7-7-5-5-9-9-10-10-9-9-10-10-7-9-7-5-7-5-4-5-4--------
E -3-5-----------5-----------------------------------------------------5-3-3--
A ----------------------------------------------------------------------------
[ Tab from: http://www.guitartabs.cc/tabs/c/cheese/mottaka_tab.html ]
B -----------------------------------------------------------------------------------------------------
F#-------------------------------------------------------------------13h15-13-12-13-12-----------------
D --------------------------------------------11h12-11---11h12-11----------------------12h14-11h12-11--
A -----4-5-4h5p4---4-5-5/7-7-5-5-9-9-10-10-12----------12---------12-----------------------------------
E -3-5-----------5-------------------------------------------------------------------------------------
A -----------------------------------------------------------------------------------------------------

Verse:

B --------------------------
F#--------------------------
D --------------------------
A --------------------------
E --------------------------
A --------------------------

Chorus:
B -------0-----------------------------------------------
F#---7-----7----------1-------------1--------------------
D -----0-----0----0-----0-------0-----0------------------4x
A -0------------2---2-----2---2---2-----2--3-3-3-4-4-4---
E ------------3-------------2--------------3-3-3-4-4-4---
A -----------------------------------------3-3-3-4-4-4---
Dive in our heads and you'll see...

repeat verse:

Chorus 2:
B ---------------------------------------------------
F#--------------------------------1------------------
D ------0---------------------0-----0----------------4x
A ----4---4-----5-5-5-5-----0---0-----0-3-3-3-4-4-4--
E --5-------5-3---------0-2-------------3-3-3-4-4-4--
A --------------------------------------3-3-3-4-4-4--
Dive in our heads and you'll see...

B ------------------------------------------   --0--
F#------------------------------------------   --0--
D ------------------------------------------2x --0--
A --3-3-3-3--4-4-4-4--3-3-3-3--6-6-6-4-4-4--   --0--
E --3-3-3-3--4-4-4-4--3-3-3-3--6-6-6-4-4-4--   --0--
A --3-3-3-3--4-4-4-4--3-3-3-3--6-6-6-4-4-4--   --0--
Send me away...


B --------------------
F#--------------------
D --------------------
A --------------------16x
E --------------------
A -4p0-4p0-0-3h4-3-0--

repeat verse then chorus 2

_end_
Comments