Cheese - Garden Fresh Chords & Tabs

 

Garden Fresh Chords & Tabs

Cheese Chords & Tabs

Version: 1 Type: Tab 0 ratings
1 star 2 stars 3 stars 4 stars 5 stars
comments

Garden Fresh Tab

   
SONG: Garden Fresh
BAND: Cheese
ALBUM: Cheese
TRANSCRIBED BY: Lemuel Andino
lemuelandino@yahoo.com

Tuning: Tune guitar 2 1/2 step down then drop d (A E A d F# B).

LEGEND:

/ or \ - slide up or down
p - pull off
h - hammer on
p.m. --- - palm mute

Intro:

B --------------------
F#--------------------
D --------------------4x
A --------------------
E --7-7-7-7--6h7-6h7--
A --------------------
p.m.- - - 

Riff A

B -----------------------------------------
F#-----------------------------------------
D -----------------------------------------4x
A ---------------------7-7--7-7------------
E --7-7--7-7--4-4--4-4-----------7-7--7-7--
A -----------------------------------------
p.m.- - - - - - - - 

Riff B

B ------------------------------
F#------------------------------
D ------------7-7-7--7/8-8-8----4x
A --7-x-------5-5-5--5/6-6-6----
E ------7-x-4-------------------
A ------------------------------
p.m. - - -

repeat riff A & B

Refrain: 
_______2x_________
gtr.1 | |
B ---------|------------ |--------|---------- |--------|----------
F#---------|------------ |--------|---------- |--------|----------
D ---------|4x---------- |--------|4x-------- |--------|4x--------
A ---------|------------ |--------|---------- |-6h7-7--|---6h7-7-7
E ---------|------------ |-6h7-7--|---6h7-7-7 |--------|----------
A --6h7-7--|---6h7--7-7- |--------|---------- |--------|----------
p.m.- - - - - - - - - - - -
[ Tab from: http://www.guitartabs.cc/tabs/c/cheese/garden_fresh_tab.html ]
gtr.2
B --------------------------------------------
F#----------------------------------------10--
D --6----------6h9-9-------6----------6h9-----
A --------------------------------------------
E --------------------------------------------
A --------------------------------------------

repeat verse, riff a, b & refrain

Refrain 2:

gtr.1 gtr.2
B -------| ------------------------|------------------------------
F#-------|rep. --------------------|------------------------------
D -------|a lot -66666666-77777777-|7x--6/9-999-1212121212121212--
A --7777-|of ----------------------|------------------------------
E --7777-|times -------------------|------------------------------
A --7777-| ------------------------|------------------------------

Bridge:
B --------------------------------------------
F#--------------------------------------------
D --------------------------------------------4x
A --7-7-7-7-7\6-6-6-6-6\5-5-5-5-5/4-4-4-4-5-6-
E ---7-7---7---6-6---6---5-5---5---4-4--------
A --------------------------------------------

B ---------------------------------------
F#---------------------------------------
D --99999999-88888888-777777777-66666666-
A --77777777-66666666-555555555-44444444-4x
E --77777777-66666666-555555555-44444444-
A --77777777-66666666-555555555-44444444-

repeat riff a b & refrain

Coda:

B -----------------------------------
F#-----------------------------------
D -----------------------------------
A -----------------------------------11x
E -----------------------------------
A --6h7-7-6h7-7-6h7-7-6h7-7-6h7-7-7--

B ------------------
F#----------------0-
D ----------------0-
A ----------------0-
E -/7-6-------------
A -------7-6-5--0---

_end_
Comments