Cheese - Fine Chords & Tabs

 

Fine Chords & Tabs

Cheese Chords & Tabs

Version: 1 Type: Tab 0 ratings
1 star 2 stars 3 stars 4 stars 5 stars
comments

Fine Tab

   
SONG: Fine
BAND: Cheese
ALBUM: Cheese
TRANSCRIBED BY: Ron Moncada (emofreak_coc@yahoo.com)
RE-ARRANGE AND PASTE BY : Jeffrey Camposano (incustank@pinoymusika.com
website: http://justsayemo.musicdot.com ; http://cocband.musicdot.com

Tuning: Tune guitar 2 1/2 step down then drop d (A E A d F# B).

LEGEND:

/ or \   - slide up or down
p        - pull off
h	 - hammer on
p.m. --- - palm mute

Intro:

B --------------------
F#--------10-xx-12-xx-
d -11-x-xx-9-xx-11-xx-4x
A -11-x-xx-7-xx--9-xx-
E --9-x-xx------------
A --------------------

B --------------------------
F#--------------------------
D --------------------------4x
A --0-0-///12-0-0-0-0-0-0---
E --0-0-------0-0-0-0-0-0---
A --0-0-------0-0-0-0-0-0---
p.m.- -       - - - - - -

Riff A:

B ------------------
F#------------------
D ------------------4x
A --2h3-2-2h3-2-1---
E --2h3-2-2h3-2-1---
A --2h3-2-2h3-2-1---

Riff B:

B ---------------------
F#---------------------
D ---------------------4x
A --3p2-2-2-3p2-2-2-1--
E ------2-2-----2-2-1--
A ------2-2-----2-2-1--
p.m.    - -     - -

Verse:
    
B --------------------        B ------------------
F#--------------------        F#------------------
D --------------------3x then D --------------2---
A ------2h3-----2h3---        A ------2h3-2-3-----    
E --3-4-----2-3-------        E --3-4-------------
A --------------------        A ------------------
p.m.- -     - -                   - -     
[ Tab from: http://www.guitartabs.cc/tabs/c/cheese/fine_tab.html ]
B ------------
F#------------
D ------------8x
A --3-4-3-2---
E --3-4-3-2---
A --3-4-3-2---
p.m.- - - -

Chorus:
Guitar 1
B --------------------------
F#--------------------------
D --9-10-9--9/10\9-9-10-9---4x
A --9-10-9--9/10\9-9-10-9---
E --7-8--7--7/8 \7-7-8--7---
A --------------------------

Guitar 2
B ------------------------
F#------------------------
D --4-5-4--4/5\4-4-5-4-----4x
A --2-3-2--2/3\2-2-3-2------
E --2-3-2--2/3\2-2-3-2------
A --2-3-2--2/3\2-2-3-2------

repeat riff b, verse & chorus

Bridge:

B -----------------------------
F#-----------------------------
D -----------------4-4-5-4-2-3-4x
A --2h3-2-2h3-2-1--2-2-3-2-0-1-
E --2h3-2-2h3-2-1--2-2-3-2-0-1-
A --2h3-2-2h3-2-1--2-2-3-2-0-1-

B --------------------------------------------------
F#--------------------------------------------------
D --7-7--7/8--7-7--7\6--7-7--7/8--------------------2x
A --7-7--7/8--7-7--7\6--7-7--7/8-5-0-4-0-4-0-4-0-4--
E --5-5--5/6--5-5--5\4--5-5--5/6-5-0-4-0-4-0-4-0-4--
A -------------------------------5-0-4-0-4-0-4-0-4--
p.m.                               -   -   -   -

B --------------------
F#--------------------
D --------------------8x
A -0-5-0-4-0-4-0-4-0-4-
E -0-5-0-4-0-4-0-4-0-4-
A -0-5-0-4-0-4-0-4-0-4-

repeat verse, chorus, & bridge 

B --------------------------
F#--------------------------
D --------------------------4x
A --0-0-------0-0-0-0-0-0---
E --0-0-------0-0-0-0-0-0---
A --0-0-------0-0-0-0-0-0---
p.m.- -       - - - - - -

repeat intro

_end_
Comments