Cheese - 10x Karma Chords & Tabs

 

10x Karma Chords & Tabs

Cheese Chords & Tabs

Version: 2 Type: Tab 0 ratings
1 star 2 stars 3 stars 4 stars 5 stars
comments

10x Karma Tab

                   
                   "10X KARMA" BY CHEESE(KESO)
                    transcribed by:freongang
                visit me at: freongang_81@yahoo.com        
                     freongang_08@yahoo.com

tuning: dropped D
intro:
         X4                      X8
D|-----------------------||-----------------------|
A|-----------------------||-----------------------|
F|-----------------------||-----------------------|
C|-3---------------------||-----------------------|
G|-3---------------------||-----------------------|
D|-1-0h1-1h2-1h3-1h4-5---||-0h1-1h2-1h3-1h4-5-----|


D|-------------------------------------|
A|-------------------------------------|
F|-------------------------------------|
C|--4-4---------3-3--------x-x---x-x---|
G|--2-2-2h3-2---1-1-1h2-1--x-x---x-x---|
D|-------------------------------------|

  Hold me tight... (fast tune as many times)
D|---------------------------------  --0----------------|
A|---------------------------------  -----0---3---0-----|
F|---------------------------------  -------------------| X4
C|---------------------------------  -------------------|
G|-7-7-7-7-3-3-3-3-5-5-5-5-2-2-2-2-  -------------------|
D|---------------------------------  -------------------|
[ Tab from: http://www.guitartabs.cc/tabs/c/cheese/10x_karma_tab_ver_2.html ]
 Bitch! My better day... X4
D|------------------------|
A|------------------------|
F|--9-9--5--7-7--4--------|
C|--9-9--5--7-7--4--------|
G|--7-7--3--5-5--2--------|
D|------------------------|

 Fell the stain... so far away... feel my pain... X4
D|-------------------  ---------------------|
A|-------------------  ---------------------|
F|-------------------  ---------------------|
C|--3---2-2--3-3--5--  --3---2-2--3--5------|
G|--3---2-2--3-3--5--  --3---2-2--3--5------|
D|--1---0-0--1-1--3--  --1---0-0--1--3------|

 Close your eyes, make a wish and say good night.
D|--------------------12-12-12-12-12-12-12-12-12-12-12-12-12-12--12-12|
A|--9-----------------------------------------------------------------|
F|---------10---------------------------------------------------------|
C|--------------------------------------------------------------------|
G|--------------------------------------------------------------------|
D|--------------------------------------------------------------------|
         as many times
D|-------------------------------------|
A|-------------------------------------|
F|-------------------------------------|
C|-------------------------------------|
G|-------------------------------------|
D|-0h1-0h1-0h2-0h2-0h3-0h3-0h2-0h2-----|
               <<<>>>
Comments