Cheech And Chong - Earache My Eye Chords & Tabs

 

Earache My Eye Chords & Tabs

Cheech And Chong Chords & Tabs

Version: 2 Type: Tab 0 ratings
1 star 2 stars 3 stars 4 stars 5 stars
comments

Earache My Eye Tab

Tabbed by the slayer\simon

Cheech and chong are the best and if you don't have some if their cds i reckon you should get some.
Also i submited a bass tab for tis song too.
Standard tuning

PLEASE RATE

Intro
E|-----|
B|-----|
G|--5--|
D|--5--|
A|--3--|
E|-----|
[ Tab from: http://www.guitartabs.cc/tabs/c/cheech_and_chong/earache_my_eye_tab_ver_2.html ]
Riff 1
E|--------------------------------|
B|--------------------------------|
G|--------------------------------|
D|--------------------------------|
A|-----------------10-10--7-------|
E|--543--543----8---8--5----------|

Riff 2
E|--------------------------------|
B|--------------------------------|
G|--------------------------------|
D|--------------------------------|
A|--7-7--5-5--1010--7-7-----------|
E|--5-5--3-3---8--8--5-5----------|

There is also a solo in this song if anyone no's it they should put it on here.

                                                     ENJOY
Comments