Cheap Trick - That 70s Show Theme Chords & Tabs

 

That 70s Show Theme Chords & Tabs

Cheap Trick Chords & Tabs

Version: 1 Type: Tab 0 ratings
1 star 2 stars 3 stars 4 stars 5 stars
comments

That 70s Show Theme Tab

   
That 70's show theme
e:------------------------------3-2-|
B:-3-3-3----------------3-3-3-3-3-3-|
G:-2-2-2----------------2-2-2-2-2-2-|
D:-0-0-0----------------0-0-0-0-0-0-|
A:---------------0-1-2--------------|
E:---------0-1-2--------------------|


e:----------------------3-2-|
B:--------------3-3-3-3-3-3-|
G:--------------2-2-2-2-2-2-|
D:--------------0-0-0-0-0-0-|
A:-------0-1-2--------------|
E:-0-1-2--------------------|


e:-2-2-0-2-0-3-3-2-0-0-0-0-|
B:-3-3-3-3-3-3-3-3-3-3-3-3-|
G:-2-2-2-2-2-2-2-2-2-2-2-2-|
D:-0-0-0-0-0-0-0-0-0-0-0-0-|
A:-------------------------|
E:-------------------------|

e:---------------|
B:---------------|
G:---------------|
D:---------------|
A:---------------|
e:-1-2-3-2-1-0-1-|


e:-0-0-0-2-0-3-3-2-0-0-0-0-|
B:-3-3-3-3-3-3-3-3-3-3-3-3-|
G:-2-2-2-2-2-2-2-2-2-2-2-2-|
D:-0-0-0-0-0-0-0-0-0-0-0-0-|
A:-------------------------|
E:-------------------------|

e:---------------|
B:---------------|
G:---------------|
D:---------------|
A:---------------|
e:-1-2-3-2-1-0-1-|


e:-2-2-0-2-0-3-3-2-0-0-0-0-|
B:-3-3-3-3-3-3-3-3-3-3-3-3-|
G:-2-2-2-2-2-2-2-2-2-2-2-2-|
D:-0-0-0-0-0-0-0-0-0-0-0-0-|
A:-------------------------|
E:-------------------------|
[ Tab from: http://www.guitartabs.cc/tabs/c/cheap_trick/that_70s_show_theme_tab.html ]
e:---------------|
B:---------------|
G:---------------|
D:---------------|
A:---------------|
e:-1-2-3-2-1-0-1-|


e:-0-0-0-2-0-3-3-2-0-0-0-0-|
B:-3-3-3-3-3-3-3-3-3-3-3-3-|
G:-2-2-2-2-2-2-2-2-2-2-2-2-|
D:-0-0-0-0-0-0-0-0-0-0-0-0-|
A:-------------------------|
E:-------------------------|

e:---------------|
B:---------------|
G:---------------|
D:---------------|
A:---------------|
e:-1-2-3-2-1-0-1-|


:-----------------------------------------------|
:-3-3-3-3-3-3-3--2-2-2-2-2-2-2------------------|
:-2-2-2-2-2-2-2--2-2-2-2-2-2-2--1-1-1-1-1-1-1-1-|
:-0-0-0-0-0-0-0--2-2-2-2-2-2-2--2-2-2-2-2-2-2-2-|
:----------------0-0-0-0-0-0-0--2-2-2-2-2-2-2-2-|
:-------------------------------0-0-0-0-0-0-0-0-|

:-----------------------------------------------|
:-3-3-3-3-3-3-3--2-2-2-2-2-2-2------------------|
:-2-2-2-2-2-2-2--2-2-2-2-2-2-2--1-1-1-1-1-1-1-1-|
:-0-0-0-0-0-0-0--2-2-2-2-2-2-2--2-2-2-2-2-2-2-2-|
:----------------0-0-0-0-0-0-0--2-2-2-2-2-2-2-2-|
:-------------------------------0-0-0-0-0-0-0-0-|


e:-2-2-2-2-2-2-2--2-2-2-2-2-2-2-2-2--|
B:-3-3-3-3-3-3-3--3-3-3-3-3-3-3-3-3--|
G:-2-2-2-2-2-2-2--2-2-2-2-2-2-2-2-2--|
D:-0-0-0-0-0-0-0--0-0-0-0-0-0-0-0-0--|
A:-----------------------------------|
E:-----------------------------------|

e:-2----------------------|
B:-3----------------------|
G:-2----------------------|
D:-0----------------------|
A:------------------------|
E:------------------------|

Any questions eimail me (tom-fox@hotmail.co.uk)
Comments