Cheap Trick - Surrender Chords & Tabs

 

Surrender Chords & Tabs

Cheap Trick Chords & Tabs

Version: 2 Type: Tab

Surrender Tab

   
INTRO 1:
E-------------------------------------------------------------------|
B-------------------------------------------------------------------|
G-1-1-1-1-1-1-1-1-3----------------1-1-1-1-1-1-1-1-3----------------|
D-1-1-1-1-1-1-1-1-3----------------1-1-1-1-1-1-1-1-3----------------|
A-1-1-1-1-1-1-1-1-1----------------1-1-1-1-1-1-1-1-1----------------|
E-------------------------------------------------------------------|

VERSE 1:
E-----------------------------------------------------------------|
B-----------------------------------------------------------------|
G-4-4-4-4-4-4-4-4---------------------------------4---4-4---4-4---|
D-4-4-4-4-4-4-4-4-4-4-4-4-4-4-4-4-2-2-2-2-2-2-2-2-4---4-4---4-4---|
A-2-2-2-2-2-2-2-2-4-4-4-4-4-4-4-4-2-2-2-2-2-2-2-2-2---2-2---2-2---|
E-----------------2-2-2-2-2-2-2-2-0-0-0-0-0-0-0-0-----------------|

RIFF 1:
E-------------------------------------------------|
B-------------------------------------------------|
G---------------------------------4--4-4--4-4--4-4|
D-2-2-2-2-2-2-2-2-4-4-4-4-4-4-4-4-4--4-4--4-4--4-4|
A-2-2-2-2-2-2-2-2-4-4-4-4-4-4-4-4-2--2-2--2-2--2-2|
E-0-0-0-0-0-0-0-0-2-2-2-2-2-2-2-2-----------------|

CHORUS 1:
E-----------------------------------------------------------------|
B-----------------------------------------------------------------|
G-4-4-4-4-4-4-4-4-------------------------------------------------|
D-4-4-4-4-4-4-4-4-6-6-6-6-6-6-6-6-4-4-4-4-4-4-4-4-2-2-2-2-2-2-2-2-|
A-2-2-2-2-2-2-2-2-6-6-6-6-6-6-6-6-4-4-4-4-4-4-4-4-2-2-2-2-2-2-2-2-|
E-----------------4-4-4-4-4-4-4-4-2-2-2-2-2-2-2-2-0-0-0-0-0-0-0-0-|

PRE-CHORUS 1:
E-------------------------------------------------|
B-------------------------------------------------|
G-------------------------------------------------|
D-2---2-2---2-2---2-2-2-2-2-2-2-2-2-2-2-2-2-2-2-2-|
A-2---2-2---2-2---2-2-2-2-2-2-2-2-2-2-2-2-2-2-2-2-|
E-0---0-0---0-0---0-0-0-0-0-0-0-0-0-0-0-0-0-0-0-0-|

INTRO 2:
E-------------------------------------------------------------------|
B-------------------------------------------------------------------|
G-------------------------------------------------------------------|
D-2-2-2-2-2-2-2-2-4----------------2-2-2-2-2-2-2-2-4----------------|
A-2-2-2-2-2-2-2-2-4----------------2-2-2-2-2-2-2-2-4----------------|
E-2-2-2-2-2-2-2-2-2----------------2-2-2-2-2-2-2-2-2----------------|

VERSE 2:
E-----------------------------------------------------------------|
B-----------------------------------------------------------------|
G-----------------------------------------------------------------|
D-5-5-7-5-5-5-7-5---------------------------------5-5-7-5-5-5-7-5-|
A-3-3-3-3-3-3-3-3-5-5-7-5-5-5-7-5-3-3-5-3-3-3-5-3-3-3-3-3-3-3-3-3-|
E-----------------3-3-3-3-3-3-3-3-1-1-1-1-1-1-1-1-----------------|

RIFF 2:
E-------------------------------------------------|
B-------------------------------------------------|
G-------------------------------------------------|
D-----------------3-3-3-3-3-3-3-3-5-5-5-5-5-5-5-5-|
A-3-3-3-3-3-3-3-3-1-1-1-1-1-1-1-1-3-3-3-3-3-3-3-3-|
E-1-1-1-1-1-1-1-1---------------------------------|
[ Tab from: http://www.guitartabs.cc/tabs/c/cheap_trick/surrender_tab_ver_2.html ]
CHORUS 2:
E-----------------------------------------------------------------|
B-----------------------------------------------------------------|
G-5-5-5-5-5-5-5-5-2-2-2-2-2-2-2-2---------------------------------|
D-5-5-5-5-5-5-5-5-2-2-2-2-2-2-2-2-5-5-5-5-5-5-5-5-3-3-3-3-3-3-3-3-|
A-3-3-3-3-3-3-3-3-0-0-0-0-0-0-0-0-5-5-5-5-5-5-5-5-3-3-3-3-3-3-3-3-|
E---------------------------------3-3-3-3-3-3-3-3-1-1-1-1-1-1-1-1-|

PRE-CHORUS 2:
E-------------------------------------------------|
B-------------------------------------------------|
G-------------------------------------------------|
D-3---3-3---3-3---3-3-3-3-3-3-3-3-3-3-3-3-3-3-3-3-|
A-3---3-3---3-3---3-3-3-3-3-3-3-3-3-3-3-3-3-3-3-3-|
E-1---1-1---1-1---1-1-1-1-1-1-1-1-1-1-1-1-1-1-1-1-|

OUTRO:
E-----------------------------------------------------------------|
B-----------------------------------------------------------------|
G-5---5-5---5-5---10--1010--1010--5---5-5---5-5-------------------|
D-5---5-5---5-5---10--1010--1010--5---5-5---5-5---5-5-5-5-5-5-5-5-|
A-3---3-3---3-3---8---8-8---8-8---3---3-3---3-3---5-5-5-5-5-5-5-5-|
E-------------------------------------------------3-3-3-3-3-3-3-3-|

here are the lyrics

INTRO 1:
VERSE 1:x2
Mother told me, yes, she told me I'd meet girls like you.
She also told me, "Stay away, you'll never know what you'll catch."
RIFF 1:x2
Well just the other day I heard a soldier falling off 
some Indonesian junk that's going round.
CHORUS 1:x2
Mommy's alright, Daddy's alright, they just seem a little weird.
Surrender, surrender, but don't give yourself away,
PRE-CHORUS 1: 
ay, aaaaaaaay.
INTRO 2:
VERSE 1:2x
Father says, "Your mother's right, she's really up on things."
"Before we married, Mommy served in the WACS in the Philippines."
RIFF 1:x2
Now, I had heard the WACS recruited old maids for the war.
But mommy isn't one of those, I've known her all these years.
CHORUS 1:x2
Mommy's alright, Daddy's alright, they just seem a little weird.
Surrender, surrender, but don't give yourself away, 
PRE-CHORUS 1:
ay, aaaaaaaay.
INTRO 2:
VERSE 2:x2
Whatever happened to all this season's losers of the year?
Every time I got to thinking, where'd they disappear?
RIFF 2:x2
When I woke up, Mom and Dad are rolling on the couch.
Rolling numbers, rock and rollin, got my KISS records out.
CHORUS 2:x2
Mommy's alright, Daddy's alright, they just seem a little weird.
Surrender, surrender, but don't give yourself away, 
PRE-CHORUS 2:x2
ay, aaaaaaaay.
OUTRO:2x
Awaaaaaaay.
Awaaaaaaay.
CHORUS 2:(keep playing till the music fades out)
Surrender, surrender, but don't give yourself away.
(Mommy's alright, Daddy's alright)
Surrender, surrender, but don't give yourself away.
(Mommy's alright, Daddy's alright)
Surrender, surrender, but don't give yourself away.
(Mommy's alright, Daddy's alright)
Surrender, surrender, but don't give yourself away.
(Mommy's alright, Mommys's alright, Mommy's alright, alright, alright)
Surrender, surrender, but don't give yourself away.
(Were all alright, Were all alright, Were all alright, Were all alright!!!)
Surrender, surrender, but don't give yourself away.
(Mommy's alright, Daddy's alright)