Cheap Sex - Launch Off To War Chords & Tabs

 

Launch Off To War Chords & Tabs

Cheap Sex Chords & Tabs

Version: 3 Type: Tab 0 ratings
1 star 2 stars 3 stars 4 stars 5 stars
comments

Launch Off To War Tab

**Cheap Sex - Launch Off to War**

Tabbed by Duncan aka bucky_2300


Intro
e--------------------------|
B--------------------------|
G---6--4--6--4--6--4--6--4-|
D--------------------------|
A--------------------------|
E--------------------------|

This continues for a while (long enough that I won't tab each single fucking note),
and then this:

[ Tab from: http://www.guitartabs.cc/tabs/c/cheap_sex/launch_off_to_war_tab_ver_3.html ]
e--------------------------------------------------------------------------|
B--------------------------------------------------------------------------|
G--6p4-6p4-6p4-(getting faster and faster with the pull-offs)--6b8-8-8-8r6-|
D--------------------------------------------------------------------------|
A--------------------------------------------------------------------------|
E--------------------------------------------------------------------------|

Verse

e------------------------------------------------|
B------------------------------------------------|
G--6-6-6-----------------9-9-9-------------------|
D--6-6-6-6-6-6-7-7-6-7---9-9-9-9-9-9-11-11-9-11--|
A--4-4-4-6-6-6-7-7-6-7---7-7-7-9-9-9-11-11-9-11--|
E--------4-4-4-5-5-4-5---------7-7-7-9--9--7-9---|


Chorus

e--------------------------------|
B--------------------------------|
G-6--6-6-6-4-4-4-4/9-9-9-9-------|
D-6--6-6-6-4-4-4-4/9-9-9-9-6-6-6-|
A-4--4-4-4-2-2-2-2/7-7-7-7-6-6-6-|
E--------------------------4-4-4-|

Outro

e---------------------|
B---------------------|
G---6-6-4-6---6-6-4-4-|
D---6-6-4-6---6-6-4-4-|
A---4-4-2-4---4-4-2-6-|
E---------------------|

Repeat as you need to. Cheers.
Comments