Cheap Sex - Launch Off To War Chords & Tabs

 

Launch Off To War Chords & Tabs

Cheap Sex Chords & Tabs

Version: 2 Type: Tab 0 ratings
1 star 2 stars 3 stars 4 stars 5 stars
comments

Launch Off To War Tab

   
"Launch Off To War" - Cheap Sex
tabbed by TCurtis  (SuM41_RoX182@hotmail.com)

Intro (with variation)
e|-------------------------------------|    
B|-------------------------------------|
G|----6-4------------------------------|
D|-------------------------------------|
A|-------------------------------------|
E|-------------------------------------|
[ Tab from: http://www.guitartabs.cc/tabs/c/cheap_sex/launch_off_to_war_tab_ver_2.html ]
Verses:
e|-------------------------------------|
B|-------------------------------------|
G|----66-----------99------------------|
D|----66-66-77-22--99-99-11119-11------|
A|----44-66-77-22--77-99-11119-11------|
E|-------44-55-00-----77-9-9/7/9-------|

Chorus:
e|-------------------------------------|
B|-------------------------------------|
G|---6666-4444-9999--------------------|
D|---6666-4444-9999-6666---------------|
A|---4444-2222-7777-6666---------------|
E|------------------4444---------------|

End On:
e|---|
B|---|
G|---|
D|-2-|
A|-2-|
E|-0-|
Comments