Cheap Sex - Launch Off To War Chords & Tabs

 

Launch Off To War Chords & Tabs

Cheap Sex Chords & Tabs

Version: 1 Type: Bass Tab 0 ratings
1 star 2 stars 3 stars 4 stars 5 stars
comments

Launch Off To War Bass Tab

alright now little boys and girls here are the tabs...

Intro: (6x)
G: --------------------------------------
D: --------------------------------------
A: ---------------7-7777-----------------
E: -9-9999-7-7777--------4-4444----------
[ Tab from: http://www.guitartabs.cc/tabs/c/cheap_sex/launch_off_to_war_btab.html ]
Verse: (
G: ---------------------------------------
D: ---------------------------------------
A: ---------------------7-77--------------
E: -9-99-4-44-5-55-5-55------7-77-9-9-7-9-
                       
(repeat -7-77-... after the 5th time)

Chorus: (same as the intro) (4x)

oh yeah...tcurtis, your tab sucks
Comments