Cheap Sex - Fuck Emo Chords & Tabs

 

Fuck Emo Chords & Tabs

Cheap Sex Chords & Tabs

Version: 1 Type: Tab 0 ratings
1 star 2 stars 3 stars 4 stars 5 stars
comments

Fuck Emo Tab

   
-------------------------------------------------------------------------------
			     Fuck Emo - Cheap Sex
-------------------------------------------------------------------------------
Tabbed by: Steve Parker(Viginancesp)
Email:shredtildeadsc@yahoo.com

Tuning: Standard

intro: 1st guitar

e|-----------------------------------------|
B|-----------------------------------------|
G|-----------------------------------------|
D|-----------------------------------------| x2
A|-5-------8--------5----------------------|
E|-----------------------------------------|

e|-----------------------------------------|
B|-----------------------------------------|
G|-----------------------------------------|
D|-----------------------------------------| 
A|-55555-88888-77-88-55555-----------------|
E|-----------------------------------------|

e|-----------------------------------------|
B|-----------------------------------------|
G|-----------------------------------------|
D|-------------------12-12-12--------------| 
A|-55555-88888-77-88-----------------------|
E|-----------------------------------------|

into: 2nd guitar    

e|-------------------------------------------------------------------|
B|-------------------------------------------------------------------|
G|-------------------------------------------------------------------| x2
D|-7-77777-----------------------7-77777-----------------------------| 
A|-5-55555---5-55555---8-88888---5-55555-----------------------------|
E|-----------3-33333---6-66666---------------------------------------|
     pm^^^     pm^^^     pm^^^     pm^^^
e|-------------------------------------------------------------------|
B|-------------------------------------------------------------------|
G|-------------------------------------------------------------------|
D|-7-77777--------------------7-77777--------------------------------| x2
A|-5-55555--5-55555--8-88888--5-55555--------------------------------|
E|----------3-33333--6-66666-----------------------------------------|


Verse:

e|---------------------------------------------------------------|
B|---------------------------------------------------------------|
G|---------------------------------------------------------------|
D|-7-77777----------------------7-77777--------------------------| x2
A|-5-55555--5-55555---8-88888---5-55555--------------------------|
E|----------3-33333---6-66666------------------------------------|
   pm^^^^^  pm^^^^^   pm^^^^^  pm^^^^^^

[ Tab from: http://www.guitartabs.cc/tabs/c/cheap_sex/fuck_emo_tab.html ]
e|---------------------------------------------------------------|
B|---------------------------------------------------------------|
G|---------------------------------------------------------------|
D|-7-77777--------------------7-77777----------------------------| x2
A|-5-55555--5-55555--8-88888--5-55555----------------------------|
E|----------3-33333--6-66666-------------------------------------|

Chorus:

e|---------------------------------------------------------------|
B|---------------------------------------------------------------|
G|---------------------------------------------------------------|
D|-7-77777-------------------------------------------------------| x2
A|-5-55555--7-77777--9-99999--7-77777----------------------------|
E|----------5-55555--7-77777--5-55555----------------------------|


Bridge:

e|---------------------------------------------------------------------|
B|---------------------------------------------------------------------|
G|---------------------------------------------------------------------|
D|-7-------------------7----------7-77777--------------------7-77777---| 
A|-5-------------------5----------5-55555--5-55555--8-88888--5-55555---|
E|-----------------------------------------3-33333--6-66666------------|
   EMO!      FUCK EMO! FUCK EMO!  FUCK     EMO!     FUCK      EMO!
   


e|---------------------------------------------------------------|
B|---------------------------------------------------------------|
G|---------------------------------------------------------------|
D|-7-77777--------------------7-77777----------------------------|
A|-5-55555--5-55555--8-88888--5-55555----------------------------|
E|----------3-33333--6-66666-------------------------------------|
   FUCK     EMO!     FUCK     EMO!

Outro:

e|---------------------------------------------------------------|
B|---------------------------------------------------------------|
G|---------------------------------------------------------------|
D|---------7-7-7-7-7-7-7-7-7-7-7---10-10-10-10-10--7-7-7-7-7-----|
A|---------5-5-5-5-5-5-5-5-5-5-5---8--8--8--8--8---5-5-5-5-5-----|
E|---------------------------------------------------------------|
  EMO FUCK YOU!

e|---------------------------------------------------------------|
B|---------------------------------------------------------------|
G|---------------------------------------------------------------|
D|--------------------12-12-12-----------------------------------|
A|-55555--88888-77-88--------------------------------------------|
E|---------------------------------------------------------------|

intro:  1x
verse:  4x
chorus: 2x
verse:  6x
chorus: 2x
bridge: 1x
outro:  1x
 

| /  slide up
| \  slide down
| h  hammer-on
| p  pull-off
| ~  vibrato
| +  harmonic
| pm Palm Mute
===============================================================================
Comments